Song name
# A B C D E F G H I J K L M N O P Q R S T U V W X Y Z

Strawberry Girls - Bird Technology Pt Ii tab

I figured I would try tabbing out some of the songs on the record and decided to 
start with what is the easiest and simplest song there.  
Sorry.  I think I'll go for Agua Verde next.

Facebook: https://www.facebook.com/strawberrygirlsmusic
Bandcamp: http://strawberrygirls.bandcamp.com/


e|-------7------------10-----------7------------10---------------------------|
b|----8-----8------8------8-----8-----8------8------7------------------------|
g|-9-------------------------9-----------------------------------------------|
d|---------------------------------------------------------------------------|
a|---------------------------------------------------------------------------|
E|---------------------------------------------------------------------------|

e|-------7-------------------------7------------7h8-7h8----------------------|
b|----8-----8------8--10--8-----8-----8--------------------------------------|
g|-0-------------------------0---------------0-------------------------------|
d|---------------------------------------------------------------------------|
a|---------------------------------------------------------------------------|
E|---------------------------------------------------------------------------|


x6


e|-7--7--7--7-7-----10--10--10---------7--7--7--7-7-----5---5---5----|
b|-8--8--8--8-8-----8---8---8----------8--8--8--8-8-----8---8---8----|
g|-9--9--9--9-9-----9---9---9--x4------0--0--0--0-0-----0---0---0-x3-|
d|-------------------------------------------------------------------|
a|-------------------------------------------------------------------|
E|-------------------------------------------------------------------|

e|-7--7--10-10-7--7--10-10-7--7--10-10-7--7--10-10-|
b|-8--8--8--8--8--8--8--8--8--8--8--8--8--8--8--8--|
g|-9--9--9--9--9--9--9--9--9--9--9--9--9--9--9--9--|
d|-------------------------------------------------|
a|-------------------------------------------------|
E|-------------------------------------------------|


x2


e|-------7------------10-----------7------------10---------------------------|
b|----8-----8------8------8-----8-----8------8------7------------------------|
g|-9-------------------------9-----------------------------------------------|
d|---------------------------------------------------------------------------|
a|---------------------------------------------------------------------------|
E|---------------------------------------------------------------------------|

e|-------7-------------------------7------------7h8-7h8--|-------------------|
b|----8-----8------8--10--8-----8-----8------------------|-------------------|
g|-0-------------------------0---------------0-----------|--9----------------|
d|-------------------------------------------------------|-on second time----|
a|-------------------------------------------------------|-play this at------|
E|-------------------------------------------------------|-the end-----------|

x2
Tap to rate this tab
# A B C D E F G H I J K L M N O P Q R S T U V W X Y Z