Song name
# A B C D E F G H I J K L M N O P Q R S T U V W X Y Z

Strawberry Girls - French Ghetto tab

This is the way I play this song.
Hope you enjoy it.

Standard tuning.


Intro. Let ring.               Repeat 2x               And so on..
|---------3------2-----------3--5---5--|--5-5-5-5-5-5-5-5-5-5-5--|
|------------0---5------------------4--|--4-4-4-4-4-4-4-4-4-4-4--| 
|----------------3------------------5--|--5-5-5-5-5-5-5-5-5-5-5--|
|----------------4------------------4--|--4-4-4-4-4-4-4-4-4-4-4--|
|-----2------------------2-------------|-------------------------|
|--0------------------0----------------|-------------------------|


[0:37]                                                                                   Repeat 3x
|---------------------------------8-7-5----------------------------------------------------------|
|---------------------------------------8-7-5----------------------------------------------------|
|---------------------------------------------8--------------------------------------------------|
|-----------------9-------5--------------------------------------9--------5---------------x--x---|
|--5/7--10--7-------------------------------------5/7--10--7-----------------------9------x--x---|
|--------------7----7--8-----8--------------------------------7-----7--8-----8--5-----5---x--x---|


[1:10]
|-------------------------------------|
|-------------------------------------|
|-----------------------8-/--11-/--9--|
|----5-------------5----x----x-----x--|
|-----------9-----------6-/--9--/--7--|
|--8---8--5---5--8---8----------------|


[1:15] - With echo - Guitar I. Play this all the way to 2:04
|--12--(12)-----8--(8)-----7--(7)-----12--(12)------5--(5)------7--(7)---|
|--12--(12)-----8--(8)-----7--(7)-----12--(12)------5--(5)------7--(7)---|
|--12--(12)-----9--(9)-----8--(8)-----12--(12)------5--(5)------7--(7)---|
|--14--(14)-----10-(10)----9- (9)---- 14--(14)------7--(7)------9--(9)---|
|------------------------------------------------------------------------|
|------------------------------------------------------------------------|

[1:31] - With echo - Guitar II   [1:48]
|-----15------15--19----17--15--|--19p17p15-----15--17--15----17--15----|
|-17------17--------------------|------------17-------------------------|
|-------------------------------|---------------------------------------|
|-------------------------------|---------------------------------------|
|-------------------------------|---------------------------------------|
|-------------------------------|---------------------------------------|

[2:04] - Clean                                                                    Repeat 2x
|---------------------------------------------------------------------------------------|
|--8--------10----------------------------------8--------10-----------------------------|
|--9--(x4)--10--(x4)--9-------------------------9--(x4)--10--(x4)--9--------------------|
|--9--------10--------10--(x4)--9-9-------5h7---9--------10--------10--(x4)--------5h7--|
|--7--------8---------10------------6--6--------7--------8---------10--------6--6-------|
|---------------------8--------------------------------------------8--------------------|

[2:21] - Distortion                    Repeat 4x
|----------------------------------------------|
|---8----------10------------------------------|
|---9--(x4)----10--(x4)---9--------------------|
|---9----------10---------10--(x4)--------5h7--|
|---7----------8----------10--------6--6-------|
|-------------------------8--------------------|

[2:37]                                                                               Repeat 2x
|----------------------------------8-7-5-----------------------------------------------------|
|------------------12-------8------------8-7-5-------------------12--------8-----------------|
|---7/9--12--9---------------------------------8--7/9--12--9-------------------------11------|
|---------------9-----9--10---10------------------------------9-----9--10-----10--7------7---|
|--------------------------------------------------------------------------------------------|
|--------------------------------------------------------------------------------------------|

[2:54]                                                                                   Repeat 2x
|---------------------------------8-7-5----------------------------------------------------------|
|---------------------------------------8-7-5----------------------------------------------------|
|---------------------------------------------8--------------------------------------------------|
|-----------------9-------5--------------------------------------9--------5---------------x--x---|
|--5/7--10--7-------------------------------------5/7--10--7-----------------------9------x--x---|
|--------------7----7--8-----8--------------------------------7-----7--8-----8--5-----5---x--x---|

[3:10]                                                                                    Repeat 4x
|-------------------------------5/7--5----------------------------------------------5/7--5--------|
|---------------------------------------8--7--8--10-----------------------------------------8--7--|
|-------------------------------------------------------------------------------------------------|
|-------------------------------------------------------------------------------------------------|
|--------------2--2--5p2-------------------------------------------2--2--5p2----------------------|
|---0--0--0h3------------5--5---------------------------0--0--0h3-------------5--5----------------|

[3:44]                  Repeat 10x
|---------------------------------|----------------------------------------------------------|
|--5p0-0-5p0-0--8-7-3--0h2h3h5----|--5p0-0-5p0-0--8-7-3--0h2h3h5--5p0-0-5p0-0--8-7--10--10---|
|---------------------------------|----------------------------------------------------------|
|---------------------------------|----------------------------------------------------------|
|---------------------------------|----------------------------------------------------------|
|---------------------------------|----------------------------------------------------------|
 You play the section above until the outro. Bare in mind that you need to pick up the speed at 4:24

[4:43] Outro
|---------|--------3------2---|
|---------|-----0-----0---5---|
|--0------|---------------3---|
|--2--9x--|---------------4---|
|--2------|--2----------------|
|--0------|--0----------------|
Tap to rate this tab
# A B C D E F G H I J K L M N O P Q R S T U V W X Y Z