Song name
# A B C D E F G H I J K L M N O P Q R S T U V W X Y Z

Strawberry Girls - Agua Verde tab

Agua Verde - Strawberry Girls

I'm pretty sure this is all correct, but let me know if you find an issue.


e|-7~----------7h8p7----------5~-|
B|-7~-----------------7-------5~-|
G|-7~--------------------7----5~-|
D|-9~-------------------------7~-|
A|-10~------------------------8~-|
E|-------------------------------|

e|-7---7---7~----7h8p7----------5---5---5~-----5-------------------|
B|-7---7---7~-----------7-------5---5---5~-----5-------------------|
G|-7---7---7~--------------7----5---5---5~-----5-------------------|
D|-9---9---9~-------------------7---7---7~-----7-------------------|
A|-10--10--10~------------------8---8---8~-----8-------------------|
E|------------------------------------------------strum really fast|



e|------------------------------------|------------------------------------|
B|------------------------------------|------------------------------------|
G|-------5--5---5--7p5-------------5--|-------5--5---5--7p5-------------5--|
D|-5h7-7------7-------------5--5-----6|--7--7------7-------------5--5-----6|
A|---------------------7--7------7----|---------------------7--7------7----|
E|------------------------------------|------------------------------------|

e|-----------------------------------|---------------------|
B|-----------------------------------|------------------10/|
G|------5--5---5--7p5----------------|-5---5---5--5-----9-/|
D|-7--7------7-------------5--5---5--|-7---7---7--7-----10/|
A|--------------------7--7------7---6|-5---5---5--5-----8-/|
E|-----------------------------------|---------------------|

e|------------------------------------|------------------------------------|
B|------------------------------------|------------------------------------|
G|-------5--5---5--7p5-------------5--|-------5--5---5--7p5-------------5--|
D|-5h7-7------7-------------5--5-----6|--7--7------7-------------5--5-----6|
A|---------------------7--7------7----|---------------------7--7------7----|
E|------------------------------------|------------------------------------|

e|-----------------------------------|-------------------------------|
B|-----------------------------------|-5---5---5--5-----10--10--10-10|
G|------5--5---5--7p5----------------|-5---5---5--5--xx-9---9---9--9-|  on second time,
D|-7--7------7-------------5--5---5--|-7---7---7--7--xx-10--10--10-10|  play this last
A|--------------------7--7------7---6|-5---5---5--5--xx-8---8---8--8-|  part 3 times
E|-----------------------------------|-------------------------------|x2

e|-------------------------------------|
B|-8~--------7~--------10~---10~---10~-|
G|-9~--------9~--------9~----9~----9~--|
D|-10~-------10~-------10~---10~---10~-|
A|-0~--------0~--------8~----x-----x---|
E|---------------------------8~----10~-|x2

e|-------0-------------------------------------------------------------------|
B|-8-------8-------7-----7h8p7-------------10----------10-----------10----10-|
G|-9---------9-----9-----------9---------9----9------9----9-------9----9--9--|
D|-10----------10--10------------10----10---------10-----------10---------10-|
A|-0---------------0-----------------8------------------------------------x--|
E|----------------------------------------------8-----------10------------10-|x2

e|-0-----0-----0-----x-x-x|
B|-0-----0-----0-----x-x-x|
G|-0-----0-----0-----x-x-x|
D|-0-----0-----0-----x-x-x|
A|-0-----0-----0-----x-x-x|
E|-0-----0-----0-----x-x-x|

e|------------------------------|
B|-10---------------12----------|
G|-9-------9--------12-------11-|
D|-10------10-------12-------12-|
A|-8-------10-------10-------12-|
E|---------8-----------------10-|x7
let ring the first 4 times, then go crazy the next 3

e|-------------------------------------------|
B|-10---------------12-12-12-12-12-12-13-13--|
G|-10------9--------12-12-12-12-12-12-13-13--|
D|-10------10-------12-12-12-12-12-12-13-13--|
A|-8-------10-------10-10-10-10-10-10-11-11--|
E|---------8---------------------------------|

e|---------------------------------------|
B|---------------------------------------|
G|-------5--5---5--7p5-------------5-----|
D|-5h7-7------7-------------5--5-----6-7\|
A|---------------------7--7------7-------|
E|---------------------------------------|

e|----------------------------------------|----------------|---------|
B|-----10-8----------------8--------------|------------5p0-|---------|
G|----------9-7-----9--7-9-------10-9-----|-----7--5-7-----|---------|
D|------------------------------------10--|----------------|x4-------|
A|--------------7------------8----------8-|-5--------------|---5---7-|
E|-5--------------------------------------|----------------|---------|x4
   ^that 5 on the E can also be a 0 on the A if you so desire.

e|-----5h8p5p0-----|
B|-5h8-------------|
G|-----------------|
D|-----------------|add this fill after
A|-----------------|the 2nd and 3rd time
E|-----------------|

e|-8---------7------------------------------------------------------|
B|---------------------10--------8----------------------------------|
G|------9---------7-------------------------------------------------|
D|--------------------------10--------10---9------------------------|
A|--------------------------------------------------------10---7----|
E|------------------------------------------------------------------|

e|-8----7-----------------------------------------------------------|
B|-----------8--------------8---------------------------------------|
G|----------------9----7---------9----------------------------------|
D|------------------------------------10---9------------------------|
A|--------------------------------------------------------10---7----|
E|------------------------------------------------------------------|

e|-----------8p7-----------|--------------------------------|
B|---------------8p0-5h8\10|--------------------------------|
G|-------------------------|-------------------5h7p5-7\9-7p0|
D|-------------------------|---------------5h7--------------|
A|-------------------------|-7--7--7---5h7------------------|
E|-5--5--5-----------------|--------------------------------|

e|-------------------------|-------------------------|
B|-----------6p5-----------|-------------------------|
G|----------------7--5-----|-------------------------|
D|-------------------------|--------------------5----|
A|-8--8--8-----------------|-5---5--5---5p3-5\7------|
E|-------------------------|----------------------4--|  x4




e|-10p0-8p0-10\12p0-10p0-8p0------------|-10p0-8p0-10h11h12-10p0-8p0-------------|
B|---------------------------10p0-8h10p8|----------------------------10p0-8h10p8-|
G|--------------------------------------|----------------------------------------|
D|--------------------------------------|----------------------------------------|
A|--------------------------------------|----------------------------------------|
E|--------------------------------------|----------------------------------------|

e|-10p0-8p0-10\12p0-10p0-8p0------------|-10p0-8p0--------10p0-8p0-------------|
B|---------------------------10p0-8h10p8|----------8h9h10----------10p0-8h10p8-|
G|--------------------------------------|--------------------------------------|
D|--------------------------------------|--------------------------------------|
A|--------------------------------------|--------------------------------------|
E|--------------------------------------|--------------------------------------|  x4



e|---------15-------14---------------|----------15-------14-------17-|
B|-10------------------------15------|-17----------------------------| hyper-pick
G|-----------------------------------|-------------------------------| each note.
D|-----------------------------------|-------------------------------|
A|-----------------------------------|-------------------------------|
E|-----------------------------------|-------------------------------| x2


e|-17p15p0---------|
B|---------17p15p0-|
G|-----------------|
D|-----------------|
A|-----------------|
E|-----------------| x12

e|-19p15p0-19p15p0-19p15p0-19p15p0-|-20p15p0-20p15p0-20p15p0-20p15p0-|
B|---------------------------------|---------------------------------|
G|---------------------------------|---------------------------------|
D|---------------------------------|---------------------------------|
A|---------------------------------|---------------------------------|
E|---------------------------------|---------------------------------|

x2


e|-5~-|
B|-5~-|
G|-5~-|
D|-7~-|
A|-8~-|
E|----|
Tap to rate this tab
# A B C D E F G H I J K L M N O P Q R S T U V W X Y Z