Song name
# A B C D E F G H I J K L M N O P Q R S T U V W X Y Z

Strawbs - A Mind Of My Own tab

-------------------------------------------------------------------------------
                     A Mind Of My Own - Strawbs
-------------------------------------------------------------------------------
Tabbed by: Me
E-mail: Jonaengs@gmail.com

Tuning: EADGBE

Even though this is listed as an intro, the riff is played repeatedly throughout most of the song.

e|--3-----3----3---------------------------------------------------------------|
B|---3-----3----3--------------------------------------------------------------|
G|----0-----0----0-------------------------------------------------------------|
D|-5*----3----2-----2---3------------------------------------------------------|
A|--------------------3--5-----------------------------------------------------|
E|-----------------------------------------------------------------------------|
 
*Can also be played as an open G.
Tap to rate this tab
# A B C D E F G H I J K L M N O P Q R S T U V W X Y Z