Song name
# A B C D E F G H I J K L M N O P Q R S T U V W X Y Z

Strawhorse - Atlanta tab

Song: Atlanta
Artist: Strawhorse
Tabbed by: zebatov
Tuning: BEADGBe

I tabbed this on my Ibanez RG7321. I got sick of not finding any (decent)
tabs for it. As such, you will not be able to play this tab without a seven
string guitar. Unless you tune your six down death-low to BEADGb.

Note: At the start it fades in, and you can hear the B5 from a section before
the intro section I have tabbed starts. So really, it probably plays four
times, but you can only hear the last one (or two) chord(s) of it.

Legend:
o = open wah (toe up)
+ = closed wah (toe down)
o/+ = rock foot heel to toe
< > = notes inside these are harmonics
d = pick down
u = pick up
/ = slide up
? = Wtf mate. There's definitely some notes in there, I just can't
    for the life of me figure out what they are. It's a "high
    pitch" sound, almost like they clipped a harmonic point
    on another string. Might also be a second guitar with wah.
    They key of the note, I think, is C#. If you can figure it
    out, props. If not, just continue hitting E5.

   Intro (0:00)
Note: There is a sound played overtop of this that reminds me of a UFO. I was
sort of able to recreate it by bending (with vibrato at the same time) the
sixth string up a full step around the 17th fret. It wasn't exact so I'm
leaving it out of the tab. Make funny noises with your mouth or something.

                 C#5   B5
Wah  o +  + + o  +  o  +
e||-----------------------||
B||-----------------------||
G||--------------6-----4--||
D||--------------6-----4--|| x3
A||--------------4-----2--||
E||--0-2--2-2-0-----0-----||
B||-----------------------||
     d u  d u d  d  d  d


                 C#5
e||-----------------------||
B||-----------------------||
G||--------------6--------||
D||--------------6--------|| x1
A||--------------4--------||
E||--0-2--2-2-0-----0-----|| Wah off
B||-----------------------||
     d u  d u d  d  d


     C#5                     C#5
e||-----------------------|-----------------------||
B||-----------------------|-----------------------||
G||--6--------------------|--6--------------------||
D||--6--------------------|--6--------------------|| x1
A||--4--------------------|--4--------------------||
E||-----------------------|-----------------------||
B||-----------------------|-----------------------||
     d                       d


   Verse (0:18)
     C#Oct COct
e||-----------------------------------||
B||-----------------------------------||
G||--6-6-6-5-6-6-6-5-6-6-6-5-6-6-6-5--||
D||--x-x-x-x-x-x-x-x-x-x-x-x-x-x-x-x--|| x2
A||--4-4-4-3-4-4-4-3-4-4-4-3-4-4-4-3--||
E||-----------------------------------||
B||-----------------------------------||
     d d d d d d d d d d d d d d d d


     B5              C#5     B5
e||-----------------------|-----------------------||
B||-----------------------|-----------------------||
G||--4---------------6----|--4--------------------||
D||--4---------------6----|--4--------------------|| x1
A||--2---------------4----|--2--------------------||
E||------0---2--2-0-----0-|-----0-0--2--0-2h3-2-0-||
B||-----------------------|-----------------------||
     d   d   u  d u  d  d    d  d u  d  u d   u d


   (0:29)                    F#5 E5
e||-----------------------------------||
B||-----------------------------------||
G||-----------------------------------||
D||--------------------------44--22---|| x2
A||--------------------------44--22---||
E||-<5-5-5-5-5-5-5-5-5-5-5-5>22--00---||
B||-----------------------------------||
     d d d d d d d d d d d d du  du


     B5              C#5     B5
e||-----------------------|-----------------------||
B||-----------------------|-----------------------||
G||--4---------------6----|--4--------------------||
D||--4---------------6----|--4--------------------|| x1
A||--2---------------4----|--2--------------------||
E||------0---2--2-0-----0-|-----0-0--2--0-2h3-2-0-||
B||-----------------------|-----------------------||
     d   d   u  d u  d  d    d  d u  d  u d   u d


                             F#5 E5
e||-----------------------------------||
B||-----------------------------------||
G||-----------------------------------||
D||--------------------------44--22---|| x2
A||--------------------------44--22---||
E||-<5-5-5-5-5-5-5-5-5-5-5-5>22--00---||
B||-----------------------------------||
     d d d d d d d d d d d d du  du


     B5              C#5     B5
e||-----------------------|-----------------------||
B||-----------------------|-----------------------||
G||--4---------------6----|--4--------------------||
D||--4---------------6----|--4--------------------|| x1
A||--2---------------4----|--2--------------------||
E||------0-0-2--2-0-----0-|-----0-0--2--0-2h3-2-0-||
B||-----------------------|-----------------------||
     d   d u d  u d  d  d    d  d u  d  u d   u d


   Bridge (0:52)
Note: There are some effects that sound like a lot of delay and sliding down
the strings here as well. I can't make them out.

     C#5
Wah o/+ o/+  o/+\o/+\o/+\o/+
e||--------------------------||
B||--------------------------||
G||--6-----------------------||
D||--6-----------------------|| x1
A||--4-----------------------||
E||--------------------------||
B||--------------------------||
     d


   Chorus (0:58)   See legend
     C#5       E5      v      B5            E5
e||--------------------?---|----------------------------||
B||--------------------?---|----------------------------||
G||--6--6--6-6---------?---|--4-4--4----4-4-------------||
D||--6--6--6-6-2-2-2---?---|--4-4--4----4-4-2-2-2-------|| x2
A||--4--4--4-4-2-2-2---?---|--2-2--2--0-2-2-2-2-2-------||
E||------------0-0-0---?---|----------------0-0-0---0-2-||
B||--------------------?---|----------------------2-----||
     d  d  d u d u d          d u  d  d u d u d d d u d
                       ^
                   See legend

     E5
e||--------------||
B||--------------||
G||--------------||
D||--2-2-2-------|| x1
A||--2-2-2-------||
E||--0-0-0---0-2-||
B||--------2-----||
     d u d d u d


                             F#5 E5
e||-----------------------------------||
B||-----------------------------------||
G||-----------------------------------||
D||--------------------------44--22---|| x2
A||--------------------------44--22---||
E||-<5-5-5-5-5-5-5-5-5-5-5-5>22--00---||
B||-----------------------------------||
     d d d d d d d d d d d d du  du


   Verse (1:16)
Note: This section is low and hard to hear. Although, if it didn't sound
right, I wouldn't have included it.
     C#5  B5             F#5 E5
e||-----------------------------||
B||-----------------------------||
G||-----------------------------||
D||-----------------------44-22-|| x2
A||--4-4--2-4-4--2-4-4--2-44-22-||
E||--4-4--2-4-4--2-4-4--2-22-00-||
B||--2-2--0-2-2--0-2-2--0-------||
     d d  d d d  d d d  d du du
   PM. .  . . .  . . .  .


     B5              C#5     B5
e||-----------------------|-----------------------||
B||-----------------------|-----------------------||
G||--4---------------6----|--4--------------------||
D||--4---------------6----|--4--------------------|| x1
A||--2---------------4----|--2--------------------||
E||------0-0-2--2-0-----0-|-----0-0--2--0-2h3-2-0-||
B||-----------------------|-----------------------||
     d   d u d  u d  d  d    d  d u  d  u d   u d

     C#5  B5             F#5 E5
e||-----------------------------||
B||-----------------------------||
G||-----------------------------||
D||-----------------------44-22-|| x2
A||--4-4--2-4-4--2-4-4--2-44-22-||
E||--4-4--2-4-4--2-4-4--2-22-00-||
B||--2-2--0-2-2--0-2-2--0-------||
     d d  d d d  d d d  d du du
   PM. .  . . .  . . .  .

     B5              C#5     B5
e||-----------------------|-----------------------||
B||-----------------------|-----------------------||
G||--4---------------6----|--4--------------------||
D||--4---------------6----|--4--------------------|| x1
A||--2---------------4----|--2--------------------||
E||------0-0-2--2-0-----0-|-----0-0--2--0-2h3-2-0-||
B||-----------------------|-----------------------||
     d   d u d  u d  d  d    d  d u  d  u d   u d


   Bridge (1:39)
Note: The effects are heard again, louder this time. Sounds like half step
bends up in an off harmony, or hammering on and off of:
B-0h1p0h1p0
G-0h1p0h1p0
followed by sliding up the neck with heavy delay and effects. It
comes in basically at the same time as the C#5 below.

     C#5
Wah o///+\\\\\o//+\o/+\o/+\o/+\o/+
e||--------------------------------||
B||--------------------------------||
G||--6-----------------------------||
D||--6-----------------------------|| x1
A||--4-----------------------------||
E||--------------------------------||
B||--------------------------------||
     d


   Chorus (1:45)
     C#5       E5             B5            E5
e||--------------------?---|----------------------------||
B||--------------------?---|----------------------------||
G||--6--6--6-6---------?---|--4-4--4----4-4-------------||
D||--6--6--6-6-2-2-2---?---|--4-4--4----4-4-2-2-2-------|| x4
A||--4--4--4-4-2-2-2---?---|--2-2--2--0-2-2-2-2-2-------||
E||------------0-0-0---?---|----------------0-0-0---0-2-||
B||--------------------?---|----------------------2-----||
     d  d  d u d u d          d u  d  d u d u d d d u d


Note: I wasn't even going to tab this solo out because it's so easy. I did it
anyways because, well... It's so easy. I'm not tabbing the wah for it.
This isn't exactly a beginner's song, and those who have a wah will
want to improvise anyways.

e||------------------------|----------------------------||
B||------------------------|----------------------------||
G||------------------------|----------------------------||
D||------------------------|----------------------------|| x2
A||-4-4-4-4-4--------------|--2-2--2--0-2-2-------------||
E||-----------0-0-0-0-0----|----------------0-0-0-------||
B||------------------------|----------------------------||
 ||                                                     ||
 ||                                                     ||
 || Rhythm under lead                                   ||
 ||  C#5       E5             B5            E5          ||
e||--------------------?---|----------------------------||
B||--------------------?---|----------------------------||
G||--6--6--6-6---------?---|--4-4--4----4-4-------------||
D||--6--6--6-6-2-2-2---?---|--4-4--4----4-4-2-2-2-------|| x2
A||--4--4--4-4-2-2-2---?---|--2-2--2--0-2-2-2-2-2-------||
E||------------0-0-0---?---|----------------0-0-0---0-2-||
B||--------------------?---|----------------------2-----||
     d  d  d u d u d          d u  d  d u d u d d d u d


Note: The slide from G5 to F#5 isn't very distinct, or defined. The best way
I can describe it is that he slides to "nothing", but not lower than the 2nd
fret, if that makes sense. If you're confused, just listen to the song.

Note: The E5, F#5 and G5 are actually played on the seventh string at the 5th
7th and 8th frets, respectively. This is apparent due to the strings scraping
from his fingers when sliding up from the C#5. I tabbed it this way because
it's easier and I find it sounds nicer.

     E5             E5   F#5G5 C#5
e||--------------|---------------------||
B||--------------|---------------------||
G||--------------|---------------------||
D||--2-2-2-------|--2-2-2-4-5\---------|| x1
A||--2-2-2-------|--2-2-2-4-5\-4--4-4--||
E||--0-0-0---0-2-|--0-0-0-2-3\-4--4-4--||
B||--------2-----|-------------2--2-2--||
     d u d d u d    d u d d d  d  d d
   PM                          .  . .

     E5   F#5G5 C#5       E5   F#5G5 C#5
e||---------------------|--------------------||
B||---------------------|--------------------||
G||---------------------|--------------------||
D||--2-2-2-4-5\---------|-2-2-2-4-5\---------|| x1
A||--2-2-2-4-5\-4--4-4--|-2-2-2-4-5\-4--4-4--||
E||--0-0-0-2-3\-4--4-4--|-0-0-0-2-3\-4--4-4--||
B||-------------2--2-2--|------------2--2-2--||
     d u d d d  d  d d    d u d d d  d  d d
   PM           .  . .               .  . .


                 Lead starts while C#5 rings out.
                 (This is actually more of a synth
                 chime, but thought I'd include it
                 anyways. Notes match the chorus
                 vocals.)
                 (2:30)
e||------------|-----------16--16--14-12----12--14----||
B||------------|-------------------------14-----------||
G||------------|--------------------------------------||
D||------------|--------------------------------------|| x1
A||------------|--------------------------------------||
E||------------|--------------------------------------||
B||------------|--------------------------------------||
 ||                         d   d   d  u  d  u   d    ||
 ||  E5   F#5G5  Rhythm                               ||
e||------------|--------------------------------------||
B||------------|--------------------------------------||
G||------------|-6------------------------------------||
D||--2-2-2-4-5-|-6------------------------------------|| x1
A||--2-2-2-4-5-|-4------------------------------------||
E||--0-0-0-2-3-|--------------------------------------||
B||------------|--------------------------------------||
     d u d d d   d


    Lead finishes
e||-/16--16--14--12---14--16------||
B||---------------------------12--||
G||-------------------------------||
D||-------------------------------|| x1
A||-------------------------------||
E||-------------------------------||
B||-------------------------------||
 ||   d   d   d   u    d   u   d  ||
 ||                               ||
 || C#5 has rung out              ||
e||-------------------------------||
B||-------------------------------||
G||-------------------------------||
D||-------------------------------|| x1
A||-------------------------------||
E||-------------------------------||
B||-------------------------------||


     E5     F#5G5
e||--------------||
B||--------------||
G||--------------||
D||--2-2-2-------|| x1
A||--2-2-2-------||
E||--0-0-0---0-2-||
B||--------2-----||
     d u d d u d


   Outro (2:45)
Note: There is more lead with wah played overtop of this.

     C#5       E5             B5            E5
e||--------------------?---|----------------------------||
B||--------------------?---|----------------------------||
G||--6--6--6-6---------?---|--4-4--4----4-4-------------||
D||--6--6--6-6-2-2-2---?---|--4-4--4----4-4-2-2-2-------|| x2
A||--4--4--4-4-2-2-2---?---|--2-2--2--0-2-2-2-2-2-------||
E||------------0-0-0---?---|----------------0-0-0---0-2-||
B||--------------------?---|----------------------2-----||
     d  d  d u d u d          d u  d  d u d u d d d u d


e||-----------------------------------||
B||-----------------------------------||
G||-----------------------------------||
D||-2-2--2---------2-2--2--2-4--------|| x1
A||-2-2--2---------2-2--2--2-4-4--4-4-||
E||-0-0--0----0-2--0-0--0--0-2-4--4-4-||
B||---------2------------------2--2-2-||
    d u  d  d u d  d u  d  d d d  d d
   PM                          .  . .

I tried to be as detailed clear as possible in writing this tab (that's why I
included notes, chord names, times etc.), so all levels of guitarists could
enjoy it.
Tap to rate this tab
# A B C D E F G H I J K L M N O P Q R S T U V W X Y Z