Song name
# A B C D E F G H I J K L M N O P Q R S T U V W X Y Z

Stray Bullets - Channels tab

STRAY BULLETS


CHANNELS 


INTRO/CHORUS
E----------|----------|----------|----------|
B----------|----------|----------|----------|
G----------|----------|----------|----------|
D-7-10-9-8-|-7-10-9-8-|-7-10-9-8-|-7-10-9-8-| X2
A-7-10-9-8-|-7-10-9-8-|-7-10-9-8-|-7-10-9-8-|
E-5-8--7-6-|-5-8--7-6-|-5-8--7-6-|-5-8--7-6-|

VERSE

E-5-5-5-5-|-8--8--8--8--|-3-3-3-3-|-7-7-7-7-|
B-5-5-5-5-|-10-10-10-10-|-5-5-5-5-|-9-9-9-9-|
G-6-6-6-6-|-10-10-10-10-|-5-5-5-5-|-9-9-9-9-|
D-7-7-7-7-|-10-10-10-10-|-5-5-5-5-|-9-9-9-9-| x 2(ska synctopation)
A---------|-------------|---------|---------|
E---------|-------------|---------|---------|


BRIDGE

E-5-5-3-3-|-7-7-8--8--|-5-5-3-3-|-7-7-5-5-|
B-5-5-5-5-|-7-7-10-10-|-5-5-5-5-|-7-7-7-7-|
G-6-6-5-5-|-8-8-10-10-|-6-6-5-5-|-8-8-7-7-|
D-7-7-5-5-|-9-9-10-10-|-7-7-5-5-|-9-9-7-7-|  x 2(ska synctopation)
A---------|-----------|---------|---------|
E---------|-----------|---------|---------|

END
E---|
B---|
G---|
D-7-| xlots
A-7-|
E-5-|

sfc

www.myspace.com/straybullets
Tap to rate this tab
# A B C D E F G H I J K L M N O P Q R S T U V W X Y Z