Stray Cats - Somethin Else tab

Intro
|-----------------------------------------------------|x2
|-----------------------------------------------------|
|-----------------------------------------------------|
|-6-6-6-6/7-7-7-7---6/7-7-7-7---6/7-7-7-7---6/7-7-7-7-|
|-4-4-4-4/5-5-5-5---4/5-5-5-5---4/5-5-5-5---6/7-7-7-7-|
|-----------------------------------------------------|

|-----------------------------|
|-----------------------------|
|-----------------------------|
|-----------------7-7--7-7----|
|-0-2-0-3-0-4-0---5-5--5-5----|
|-----------------------------|

then...
Verse
|----------------------------------| x2
|----------------------------------|
|----------------------------------|
|-6/7-7-9-7-7-7-9-7-7-7-9-7-7-7-9--|
|-4/5-5-5-5-5-5-5-5-5-5-5-5-5-5-5--|
|----------------------------------|

|-------------------------------------------------------------|
|-------------------------------------------------------------|
|-------------------------------------------------------------|
|-------------------------------------------------------------|
|-7-7-9-7-7-7-9-7-7-7-9-7-7-7 9-5-5-7-5-5-5-7-5-5-5-7-5-5-5-7-|
|-5-5-5-5-5-5-5-5-5-5-5-5-5-5-5-3-3-3-3-3-3-3-3-3-3-3-3-3-3-3-|

|-------------------------------------|
|-------------------------------------|
|-------------------------------7---7-|
|-------------------------------5---7-|
|-7-7-9-7-7-7-9-5-5-7-5-5-5-7 --------|
|-5-5-5-5-5-5-5-3-3-3-3-3-3-3---------|

Then Repeat The Intro Straight After The Verse.

After You Have Repeated The Intro Play The Verse and So On. 

Thanks For Taking Interest.

Any Questions Just Mail Me And Il Do My Best To Reply Straight Away. 
Tap to rate this tab
 
# A B C D E F G H I J K L M N O P Q R S T U V W X Y Z