Song name
# A B C D E F G H I J K L M N O P Q R S T U V W X Y Z

Stray Cats - Switchblade 327 tab

-----------------------------------------------------------------------------
                    SwitchBlade 327 - Stray Cats 
-----------------------------------------------------------------------------
Song: SwitchBlade 327
Artist: Stray Cats
Album: The Dirty Boogie
Tuning: Standard 

Intro:
e------------------------------------------------------------------|
b-----------------------------------------------------3whammy------|
g-----------------------------------------------------2w-----------|
d-------0-1-2p1-0-1-0--0-------2------0-1-2p1-0-1-0---0w-----------|
a-0-0-3---------------3--3-0------0-3---------------3--------------|
e----------------------------3-------------------------------------|

e------------------------------------------------------0-----|
b------------------------------------------------------0-----|
g------------------------------------------------------0-----|
d-------0-1-2p1-0-1-0--0-------2-----0-1-2p1-0---------2-----|
a-0-0-3---------------3--3-0-----0-3------------3-0-4--2-----|
e----------------------------3-------------------------0-----|

e-----------------------------------------------|
b-----------------------------------------------|
g---------7-8-9p8-7-8-7---7---------------------|
d-/7-7-10---------------10--10-7----7whammy-----|
a--------------------------------10-------------|
e-----------------------------------------------|

e----------------------------------------|
b-------------------------7whammy--------|
g--------7-8-9p8-7-8-7----7w-------------|
d---7-10---------------10----------------|
a----------------------------------------|
e----------------------------------------|

e-----------10-11-12p11-10-11-10---10-----------------------|
b-/10-10-13----------------------13---13-10----10whammy-----|
g-------------------------------------------12--------------|
d-----------------------------------------------------------|
a-----------------------------------------------------------|
e-----------------------------------------------------------|

e-----------10-11-12p11-10-----------------------|
b-----10-13----------------13-10----9whammy------|
g--------------------------------12-9w-----------|
d------------------------------------------------|
a------------------------------------------------|
e------------------------------------------------|

e---------------8--8---8----|
b-9--9-9--5--5--8--8---8----|
g-9--9-9--7--7--7--7---7----|
d---------6--6--6--6---6----|
a---------7--7--7--7---7----|
e---------------------------|
                                                       
Tap to rate this tab
 
# A B C D E F G H I J K L M N O P Q R S T U V W X Y Z