Song name
# A B C D E F G H I J K L M N O P Q R S T U V W X Y Z

Stray Cats - Rumble In Brighton tab

---------------------------------------------------------------------------
                      Rumble In Brighton - Stray Cats
---------------------------------------------------------------------------
Artist:Stray Cats
Song:Rumble In Brighton
Album:The Best Of The Stray Cats

Intro + Solo this is pretty much the most that i could tab out that sounded mainly 
correct to me which are pretty much the parts where Brian's not singing but hey somethings 
better then nothing. Rate and comment what i've got Thanks

Intro:
e---------------------|0---------------0-------------|-0-------|
b-3-3-3-3-3-3-3-3-3-3-|0---------------0-------------|-1-------|
g-2-2-2-2-2-2-2-2-2-2-|0---------------0-------------|-2-------|
d-1-1-1-1-1-1-1-1-1-1-|2---------------2-------------|-2--0-2--|
a-2-2-2-2-2-2-2-2-2-2-|2---0-2-----0-2-2--0-2----0--2|-0-3---0-|
e---------------------|0-3-----0-3-----0-3----0-3----|---------|

e-------0----------------|-------------------------------------------------|
b-------0----------------|-------------------------------------------------|
g-------0----------------|-3/4----------------2-2--3-3/4-------------------|
d--0-2--2----------------|-3/4-4-0-4-0-4-2--2-2-2--3-3/4-4-0-4-0-4---------|
a-3-----2---0-2-----0-2--|-1/2-2-------2--3--3---3-1-1/2-2---------0-------|
e-------0-3-----0-3------|------------------------------------------3-2-1--|

e-0------------0------------|-----------------------------------------------|
b-0------------0------------|-----------------------------------------------|
g-0------------0------------|-----------------------------------------------|
d-2------------2------------|-1/2-2--2--2-2/4-4--4--4-4/5-5--5--5-5/7-7--7--|
a-2--0-2---0-2-2--0-2---0-2-|-1/2-2--2--2-2/4-4--4--4-4/5-5--5--5-5/7-7--7--|
e-0-3---0-3----0-3---0-3----|-------3--------0--5--0-----0-7--0------0-9----|

e-------------------------------------------------------------------0------|
b-------------------------------------------------------------------0------|
g-------------------------------------------------------------------0------|
d--7-7/9-9--9-9-9/10-10--10-10-10/12-12--12-12-12-12-12-12-12-12-12-2------|
a--7-7/9-9--9-9-9/10-10--10-10-10/12-12--12-12-12-12-12-12-12-12-12-2------|
e-0-----0-10-0------0--12--0--------0--14--0------------------------0------|

Solo:
e------0-----0-----0-----0------------------------------------------------|
b-11h12-11h12-11h12-11h12-------0-----0-----0-----0-----------------------|
g--------------------------11h12-11h12-11h12-11h12--12b-9-----12b-9-------|
d---------------------------------------------------------12-9------12-9--|
a-------------------------------------------------------------------------|
e-------------------------------------------------------------------------|

e--------------0-3p2-0------------------------------0-------0--------------|
b---------------------3p2-0-------------------------3/5-5-3-0--------------|
g--------------------------3p2-0-------------------------------------------|
d--------------------------------3p2-0-----------------------7b-5-2-0-0-2--|
a--0---0-2-0--0------------------------3p2-0-------------------------2-----|
e-0-2/3-----3-------------------------------3p2-0--------------------------|

e-------------------------------------------------------------------|
b---12-12-12-12-12-9-9-9-9-10-10/12-12-12-12-12--10-10-10-10-10-----|
g-9----12----12-9----9---9-7---7/9---9-12----12-9---10----10--7-----|
d-------------------------------------------------------------------|
a-------------------------------------------------------------------|
e-------------------------------------------------------------------|

e---------------------------------------------0--------------------|
b-10/12-12-12-12-12--10-10-10-10-10-----------0--------------------|
g--7/9---9-12----12-9---10----10--7-----------0--------------------|
d---------------------------------------------2--------------------|
a-----------------------------------12-10-9-8-2--------------------|
e---------------------------------------------0-0w-----------------|
Tap to rate this tab
# A B C D E F G H I J K L M N O P Q R S T U V W X Y Z