Song name
# A B C D E F G H I J K L M N O P Q R S T U V W X Y Z

Stray From The Path - Negative And Violent tab

[Negative And Violent]
[Make Your Own History]
[Stray From The Path]

Tuning: Drop C (CGCFAD/Drop D One Step Down)
joshuaoliveira@hotmail.com

my gp will help alot with this song if its accepted :P

[Riff 1] - [00:00] - [00:18]------------------------------------------| 3x
- --------------------------------------------------------------------|
- -----------------------------4b-4b----------------------------------|
- -----------------------------5b-5b----------------------------------|
- -3---5-6---2---2-3---5-6---2-------3---5-6---2---2-3---5-6---2-2-2--|
- -3-4-5-6-5-2---2-3-4-5-6-5-2-------3-4-5-6-5-2---2-3-4-5-6-5-2-2-2--|
- -3---5-6---2---2-3---5-6---2-------3---5-6---2---2-3---5-6---2-2-2--|

----------------------------------------------------------------------------

[Riff 2, Guitar 1 & 2] - [00:18] - [00:24]----| 2x
- --------------------------------------------|
- --------------------------------------------|
- --------------------------------------------|
- -3-6-5-------2-5-3-6-5----------------------|
- -3-6-5-------2-5-3-6-5----------------------|
- -3-6-5-------2-5-3-6-5----------------------|
-
- -------0---------------------------|
- -------4h5-------------0-----------|
- -----------4-----------4h5---4h5---|
- ---------------------------5-----5-|
- -----------------------------------|
- -----------------------------------|

----------------------------------------------------------------------------

[Riff 3] - [00:24] - [00:34] - 3------|5x
- -------0----------------------------|
- -------4h5-------------0------------|
- -----------4-----------4h5---4h5----|
- -3-6-5-------2-5-3-6-5-----5-----5--|
- -3-6-5-------2-5-3-6-5--------------|
- -3-6-5-------2-5-3-6-5--------------|

----------------------------------------------------------------------------

[Riff 4, Guitar 1 & 2] - [00:34] - [00:37]
- ---------------------------------|
- ---------------------------------|
- ---------------------------------|
- -9---9---9---9---9---9---9---9---|
- -6---6---6---6---6---6---6---6---|
- -6---6---6---6---6---6---6---6---|
-
- ---------------------------------|
- ---------------------------------|
- ---------------------------------|
- -6---6---6---6---6---6---6---6---|
- -3---3---3---3---3---3---3---3---|
- -3---3---3---3---3---3---3---3---|

----------------------------------------------------------------------------

[Riff 5, Guitar 1 & 2] - [00:37] - [00:55]
- -----------------17------18------------------|
- -16--------------------------------------0---|
- ---------16--13------------------12------0---|
- ---------------------------------------------|
- ---------------------------------------------|
- -------------------------------------------7-|
-
- ---------19--23------------------------------|
- -20----------------------16------------------|
- -----------------12--------------15------14--|
- ---------------------------------------------|
- ---------------------------------------------|
- ---------------------------------------------|

Some effect? possibly tremolo picking?

[Riff 6, Guitar 1 & 2] - [00:43] - [00:49]
- ---------------------------------------------------------------|
- ---------------------------------------------------------------|
- ---------------------------------------------------------------|
- -----5b------4-------3-------4b------8b------7-----6-------7b--|
- ---4-------3-----------4-5-4-------7-------6---------7-6-7-----|
- -3-------------6b----------------6-------------9b--------------|
-
- ---------------------------------------------------------------|
- ---------------------------------------------------------------|
- ---------------------------------------------------------------|
- -----5b------4-------3-------4b------5b------4-----3-------4b--|
- ---4-------3-----------4-5-4-------4-------3---------5-4-5-----|
- -3-------------6b----------------3-------------6b--------------|

----------------------------------------------------------------------------

[Riff 3] - [00:55] - [01:06] - 3.5x
[Riff 4, Guitar 1 & 2] - [01:06] - [01:09]

[Background] - [00:55] - [01:09]
- ---------------------------------------------------|
- ---------------------------------------------------|
- -16-------17-------17--17--17--17--17--17--17--17--|
- -x--------x--------x---x---x---x---x---x---x---x---|
- -14(16x)--15(12x)--15--15--15--15--15--15--15--15--|
- ---------------------------------------------------|
-
- ---------------------------------------------------|
- ---------------------------------------------------|
- -16-------13-------13--13--13--13--13--13--13--13--|
- -x--------x--------x---x---x---x---x---x---x---x---|
- -14(16x)--11(12x)--11--11--11--11--11--11--11--11--|
- ---------------------------------------------------|

----------------------------------------------------------------------------

[Riff 7, Guitar 1 & 2] - [01:09] - [01:14]----| 2x
- --------------------------------------------|
- -55555-----55555-----5-5555555--------------|
- -33333-----33333-----3-3333333--------------|
- -22222-----22222-----2-2222222--------------|
- -11111-----11111-----1-1111111--------------|
- --------------------------------------------|
-
- ---------------------------------|
- -88888-----88888-----8-8888888---|
- -66666-----66666-----6-6666666---|
- -55555-----55555-----5-5555555---|
- -44444-----44444-----4-4444444---|
- ---------------------------------|

----------------------------------------------------------------------------

[Riff 1] - [01:14] - [01:21]

[Background] - [01:14] - [01:21]
- --------|
- -6------|
- -9(16x)-|
- --------|
- --------|
- --------|

----------------------------------------------------------------------------

[Riff 7, Guitar 1 & 2] - [01:21] - [01:33] - 4x

----------------------------------------------------------------------------

[Riff 1] - [01:33] - [01:45] - 2x

[Background] - [01:33] - [01:45]
- --------13------|
- -6------17(16x)-|
- -9(16x)---------|
- ----------------|
- ----------------|
- ----------------|

----------------------------------------------------------------------------

[Riff 8, Guitar 1 & 2] - [01:45] - [02:09]----| 2x
- --------------------------------------------|
- -------9-\6/9---------9-\6/9-\15/9\15/9-----|
- -------12\9/12--------12\9/12---------------|
- --------------------------------------------|
- -0-0-0----------0-0-0-----------------------|
- -0-0-0----------0-0-0-----------------------|
PM .....          .....
-
- -------------------------------------------|
- -------10\7-/10-------10\7-/10/16\10/15\10-|
- -------13\10/13-------13\10/13-------------|
- -------------------------------------------|
- -0-0-0----------0-0-0----------------------|
- -0-0-0----------0-0-0----------------------|
PM .....          .....


- ----------------------------------------|
- -------9-\6/9---------9-\6/9-\15/9\14/9-|
- -------12\9/12--------12\9/12-----------|
- ----------------------------------------|
- -0-0-0----------0-0-0-------------------|
- -0-0-0----------0-0-0-------------------|
PM .....          .....
-
- -------------------------------------------|
- -------10\7-/10-------10\7-/10/16\10/15\10-|
- -------13\10/13-------13\10/13-------------|
- -------------------------------------------|
- -0-0-0----------0-0-0----------------------|
- -0-0-0----------0-0-0----------------------|
PM .....          .....


- ----------------------------------------|
- -------9-\6/9---------9-\6/9-\16/9\15/9-|
- -------12\9/12--------12\9/12-----------|
- ----------------------------------------|
- -0-0-0----------0-0-0-------------------|
- -0-0-0----------0-0-0-------------------|
PM .....          .....
-
- -------------------------------------------|
- -------10\7-/10-------10\7-/10/16\10/15\10-|
- -------13\10/13-------13\10/13-------------|
- -------------------------------------------|
- -0-0-0----------0-0-0----------------------|
- -0-0-0----------0-0-0----------------------|
PM .....          .....


- ----------------------------------------|
- -------9-\6/9---------9-\6/9-\15/9\15/9-|
- -------12\9/12--------12\9/12-----------|
- ----------------------------------------|
- -0-0-0----------0-0-0-------------------|
- -0-0-0----------0-0-0-------------------|
PM .....          .....
-
- -------------------------------------------|
- -------10\7-/10-------10\7-/10/16\10/15\10-|
- -------13\10/13-------13\10/13-------------|
- -------------------------------------------|
- -0-0-0----------0-0-0----------------------|
- -0-0-0----------0-0-0----------------------|
PM .....          .....


----------------------------------------------------------------------------

[Riff 9] - [02:09] - [02:56] - 1-|6x
- -------------------------------|
- -------------------------------|
- -------------------------------|
- -------------------------------|
- -0-0-0-------0-0-0-------------|
- -0-0-0-------0-0-0-------------|
PM .....       .....

----------------------------------------------------------------------------

[Symbols]

b     Bend
h     Hammer On
p     Pull Off
x     Dead Note
/     Slide Up
\     Slide Down
PM... Palm Mute notes with (...) under them
( x)  Play note x amount of times

:D
Tap to rate this tab
# A B C D E F G H I J K L M N O P Q R S T U V W X Y Z