Song name
# A B C D E F G H I J K L M N O P Q R S T U V W X Y Z

Straylight Run - Soon Well Be Living In The Future Acoustic tab

Highlighted       Show chord diagrams
-------------------------------------------------------------------------------
		Soon We'll Be Living In The Future - Straylight Run
-------------------------------------------------------------------------------
Tabbed by: shut_up_n00b
Email: epiphone_squier@hotmail.com

This is a great song from The Needles The Space.  It is a different acoustic version I 
in an EP called "TNTS Digital - EP".  It has open chords in the intro.  Figure out the 
pattern by listening to the song.

Tuning: Standard

Chords You'll be using
Asus2 - x02200
C7M - x35500
E5 - xx2450
G5 - 355xxx

|----------------|
|    *INTRO*     |
|----------------|
Asus2  C7M   E5  G5
So please, be honest

Asus2               C7M
What's it mean and what have you done?

E5                           G5
Can I just be another risk you're running? Can I?

Asus2                            C7M   G5
It's simple, soaked and always on my mind.

I'm dying.

|----------------|
|    *VERSE*     |
|-----------------------------||
e||---------------------------||
B||o-0--0-0-0-------------o---||
G||--2--2-3-2---7--7-7-5------||
D||--3--3-3-3---5--5-5-5------||
A||o------------6--6-6-6--o---||
E||---------------------------||

We've, got these lives to lead.
e||-------------------------||
B||o-0--0-0-0-------------o-||
G||--2--2-3-2---7--7-7-5----||
D||--3--3-3-3---5--5-5-5----||
A||o------------6--6-6-6--o-||
E||-------------------------||
Cut it out, don't think about it.
e||-------------------------||
B||--0--0-0-0---------------||
G||--2--2-3-2---7--7-7-5----||
D||--3--3-3-3---5--5-5-5----||
A||-------------6--6-6-6----||
E||-------------------------||
Cut it out, don't think about it.
e||-------------------------||
B||--0--0-0-0---------------||
G||--2--2-3-2---7--7-7-5----||
D||--3--3-3-3---5--5-5-5----||
A||-------------6--6-6-6----||
E||-------------------------||

Not now,
e||-------------------------||
B||o-0--0-0-0-------------o-||
G||--2--2-3-2---7--7-7-5----||
D||--3--3-3-3---5--5-5-5----||
A||o------------6--6-6-6--o-||
E||-------------------------||
We'll get through, somehow.
e||-------------------------||
B||o-0--0-0-0-------------o-||
G||--2--2-3-2---7--7-7-5----||
D||--3--3-3-3---5--5-5-5----||
A||o------------6--6-6-6--o-||
E||-------------------------||
This is only temporary, no
e||-------------------------||
B||--0--0-0-0---------------||
G||--2--2-3-2---7--7-7-7----||
D||--3--3-3-3---5--5-5-5----||
A||-------------6--6-6-6----||
E||-------------------------||
This is only temporary.
e||-------------------------||
B||--0--0-0-0---------------||
G||--2--2-3-2---7--7-7-7----||
D||--3--3-3-3---5--5-5-5----||
A||-------------6--6-6-6----||
E||-------------------------||

|----------------|
|  *PRE-CHORUS*  |
|----------------|
Not now, but soon
e||-------------------------||
B||o----------------------o-||
G||--9--9-9-7---7--7-7-5----||
D||--7--7-7-7---5--5-5-5----||
A||o-8--8-8-8---6--6-6-6--o-||
E||-------------------------||
We'll be living in the future.
e||----------------------------|-------------------||
B||----------------------------|-------------------||
G||--9--9-9-7---11--11-11-9----|--7-7-7-7-7-7-7----||
D||--7--7-7-7---9---9--9--9----|--5-5-5-5-5-5-5----||
A||--8--8-8-8---10--10-10-10---|--6-6-6-6-6-6-6----||
E||----------------------------|-------------------||
|--------------------------------------------------||
|    *CHORUS*    |
|----------------|

Asus2  C7M   E5  G5
And please, be honest

Asus2               C7M
What's it mean and what have you done?

E5                           G5
Can I just be another risk you're running? Can I?

Asus2                            C7M   G5
It's simple, soaked and always on my mind.

I'm dying.

|----------------|
|    *VERSE*     |
|-----------------------------||
e||---------------------------||
B||o-0--0-0-0-------------o---||
G||--2--2-3-2---7--7-7-5------||
D||--3--3-3-3---5--5-5-5------||
A||o------------6--6-6-6--o---||
E||---------------------------||
We've, got these mouths to feed.
e||-------------------------||
B||o-0--0-0-0-------------o-||
G||--2--2-3-2---7--7-7-5----||
D||--3--3-3-3---5--5-5-5----||
A||o------------6--6-6-6--o-||
E||-------------------------||
Food and drink and hand shake drugs
e||-------------------------||
B||--0--0-0-0---------------||
G||--2--2-3-2---7--7-7-5----||
D||--3--3-3-3---5--5-5-5----||
A||-------------6--6-6-6----||
E||-------------------------||
Food and drink and hand shake drugs
e||-------------------------||
B||--0--0-0-0---------------||
G||--2--2-3-2---7--7-7-5----||
D||--3--3-3-3---5--5-5-5----||
A||-------------6--6-6-6----||
E||-------------------------||

And we've, We've got something up our sleeves.
e||--------------------------||
B||o--0--0-0-0-------------o-||
G||---2--2-3-2---7--7-7-5----||
D||---3--3-3-3---5--5-5-5----||
A||o-------------6--6-6-6--o-||
E||--------------------------||
No one's gonna see it comin'
e||--------------------------||
B||---0--0-0-0---------------||
G||---2--2-3-2---7--7-7-5----||
D||---3--3-3-3---5--5-5-5----||
A||--------------6--6-6-6----||
E||--------------------------||
No, they won't ever see it coming.
e||-------------------------||
B||--0--0-0-0---------------||
G||--2--2-3-2---7--7-7-5----||
D||--3--3-3-3---5--5-5-5----||
A||-------------6--6-6-6----||
E||-------------------------||

|----------------|
|  *PRE-CHORUS*  |
|----------------|
Not now, but soon
e||-------------------------||
B||o----------------------o-||
G||--9--9-9-7---7--7-7-5----||
D||--7--7-7-7---5--5-5-5----||
A||o-8--8-8-8---6--6-6-6--o-||
E||-------------------------||
We'll be living in the future.
e||----------------------------|-------------------||
B||----------------------------|-------------------||
G||--9--9-9-7---11--11-11-9----|--7-7-7-7-7-7-7----||
D||--7--7-7-7---9---9--9--9----|--5-5-5-5-5-5-5----||
A||--8--8-8-8---10--10-10-10---|--6-6-6-6-6-6-6----||
E||----------------------------|-------------------||
|--------------------------------------------------||
|    *OUTRO*     |
|----------------|
Asus2  C7M   E5  G5
And please, be honest

Asus2               C7M
What's it mean and what have you done?

E5                           G5
Can I just be another risk you're running? Can I?

Asus2               C7M
What's it mean and what have you done?

E5                           G5
Can I just be another risk you're running? Can I?

Asus2                            C7M   G5
It's simple, soaked and always on my mind.

Asus2                            C7M   G5
It's simple, soaked and always on my mind.

I'm dying.

That is it.  Even if you don't sing it, it's really fun to play.  Enjoy and rate.

===============================================================================
| /  slide up
| \  slide down
| h  hammer-on
| p  pull-off
| ~  vibrato
| +  harmonic
| x  Mute note
===============================================================================
Tap to rate this tab
# A B C D E F G H I J K L M N O P Q R S T U V W X Y Z