Song name
# A B C D E F G H I J K L M N O P Q R S T U V W X Y Z

Straylight Run - Wait And Watch tab

This is a new song that will be coming off their new EP "Un Mas Dos" coming out Sept 
 this song can be heard on www.altpress.com

()= not necessary

Intro
e|----------------------------------------------------------|
B|----------------------------------------------------------|
G|-----5-----5---2--2-3-2-----------------------------------|
D|---5---(5)-------------5-3--------------------------------|
A|----------------------------------------------------------|
E|----------------------------------------------------------|

do this until the piano verse. i am currently learning the piano part and i will 
it onto guitar soon


Chorus
e|-----8---8---5--5-6-5-------------------------------------|
B|---8--(8)---------------8-6-------------------------------|
G|----------------------------------------------------------|
D|----------------------------------------------------------|
A|----------------------------------------------------------|
E|----------------------------------------------------------|

verse 2 is a more distorted guitar which i am working on

Outro
e|-----8---8---5--5-6-5----------------------------------------|
B|----8-(8)---------------8-6----------------------------------|
G|-------------------------------------------------------------|
D|-------------------------------------------------------------|
A|-------------------------------------------------------------|
E|-------------------------------------------------------------|


that is 1 days work ill will update later
Tap to rate this tab
# A B C D E F G H I J K L M N O P Q R S T U V W X Y Z