Song name
# A B C D E F G H I J K L M N O P Q R S T U V W X Y Z

Straylight Run - Existentialism On Prom Night tab

This is my version of Existentialism on Prom Night. Love it, played it, tabbed it.  
it's all picking, no chords.  Enjoy.

e|-------------------------------------------------------------------------|
B|-------------------------------------------------------------------------|
G|----------2-----------------2-----------------2-----------------1--------|
D|-------4-----4-----------0-----0-----------2-----2-----------2-----2-----|x2
A|----4-----------4-----0-----------0-----2-----------2-----2-----------2--|
E|-4-----------------0-----------------2-----------------2-----------------|

e|-------------------------------------------|
B|-------------------------------------------|
G|-------------------------------------------|
D|-------------------------------------------|  x2
A|-4---4---4h5h7---7-5-5-4---4--5--2--0--2-2-|
E|-------------------------------------------|

e|-------------------------------------------|
B|-------------------------------------------|
G|-------------------------------------------|
D|-------------------------------------------|  X2
A|-4---4---4h5h7---7-5-5-4---4--5--2--0--2-2-|
E|-------------------------------------------|

e|------------------------------------|-------------|
B|------------------------------------|-------------|
G|------------------------------------|-------------|
D|------------------------------------|----------x3-|
A|-4---5---7---9---11---9---7---5---0-|-4-5-7-0-----|
E|------------------------------------|-------------|

e|-------------------------------------------|
B|-------------------------------------------|
G|-------------------------------------------|
D|-------------------------------------------|  x4
A|-4---4---4h5h7---7-5-5-4---4--5--2--0--2-2-|
E|-------------------------------------------|

e|------------------------------------|-------------|
B|------------------------------------|-------------|
G|------------------------------------|-------------|  x2
D|------------------------------------|----------x3-|
A|-4---5---7---9---11---9---7---5---0-|-4-5-7-0-----|
E|------------------------------------|-------------|

e|-------------------------------------------|
B|-6---6---6h7h9---9-7-7-6---6--7--4--2--4-4-|
G|-------------------------------------------|   x6
D|-------------------------------------------|
A|-------------------------------------------|
E|-------------------------------------------|

e|-------------------------------------|-------------|
B|-6---7---9---11---13---11---9---7----|-6-7-9-------|
G|------------------------------------7|-------7-----|
D|-------------------------------------|----------x3-|  x2
A|-------------------------------------|-------------|
E|-------------------------------------|-------------|

e|-------------------------------------------|
B|-6---6---6h7h9---9-7-7-6---6--7--4--2--4-4-|
G|-------------------------------------------|
D|-------------------------------------------|  x4
A|-------------------------------------------|
E|-------------------------------------------|

e|-------------------------------------------|
B|-------------------------------------------|
G|-------------------------------------------|  x2
D|-------------------------------------------|
A|-4---4---4h5h7---7-5-5-4---4--5--2--0--2-2-|
E|-------------------------------------------|

e|----|
B|----|
G|----|
D|----|
A|-0~-|
E|----|
Tap to rate this tab
 
# A B C D E F G H I J K L M N O P Q R S T U V W X Y Z