Song name
# A B C D E F G H I J K L M N O P Q R S T U V W X Y Z

Straylight Run - Tool Sheds And Hot Tubs tab

e|-----------|----------|----------|-----------|
B|-----------|----------|----------|-----------|
G|2----2-0---|----------|--------0-|------0--0-|
D|---------3-|2--2--0---|0--0--2---|3---3------|
A|---0-------|--------3-|----------|-----------|
E|-----------|----------|----------|-----------|

e|-----5-3---|0--0------|------0-3-|1---1-3-3-5|
B|---------6-|------3---|3--3------|-----------|
G|2----------|--------5-|----------|-----------|
D|-----------|----------|----------|-----------|
A|---0-------|----------|----------|-----------|
E|-----------|----------|----------|-----------|
Tap to rate this tab
 
# A B C D E F G H I J K L M N O P Q R S T U V W X Y Z