Song name
# A B C D E F G H I J K L M N O P Q R S T U V W X Y Z

Straylight Run - Hands In The Sky Big Shot tab

Intro/Verse:
e|----------------------------------------------------------------------|
B|----------------------------------------------------------------------|
G|-------4-4-2-2-4-4-----4-4-2-2-0-0-------------------------5-5-4-4----|
D|---------------------------------------5-5-4-4-5-5-----5-5------------|x9
A|-----------------------------------3-3-------------3-3----------------|
E|---0-0-------------0-0------------------------------------------------|

(Tremolo and Distortion)
e|------------------|
B|------------------|
G|----------4--5~---|Somewhere around the area of 13 times but you cant 
D|---2~-----4--5~---|really tell cause the sound of the guitar starts
A|---2~-----2--3~---|to decay
E|---0~-------------|

(After 2 Times, Guitar two plays this)
e|----------------------------------------------------|
B|----------------------------------------------------|
G|---16----16----16----16----17----17----17----17-19--|
D|------17----17----17----17----17----17----17--------|
A|----------------------------------------------------| about 13 times
E|----------------------------------------------------|



Tap to rate this tab
 
# A B C D E F G H I J K L M N O P Q R S T U V W X Y Z