Song name
# A B C D E F G H I J K L M N O P Q R S T U V W X Y Z

Straylight Run - Hands In The Sky tab

Help us improve GuitareTab! Take a short survey!
The other tabs for this song that I've seen are pretty good except when Straylight
Run plays it, they let the notes ring out, so I think this version is the best.
It's a great song, enjoy!

VERSE: 
e|-------------------------------------------------------------------------| 
B|--------0--0--------0--0---------0--0------------------------------------| 
G|---------------------------------------------0--0------------------------| 
D|--------------7--7---------------------7--7------------------------------| 
A|-------------------------------------------------------------------------| 
E|--0--0---------------------0--0------------------------------------------| 

e|-------------------------------------------------------------------------| 
B|-------------------------------------------------------------------------| 
G|--------0--0--------0--0---------0--0--5--5--4--4------------------------| 
D|--------------4--4-------------------------------------------------------| 
A|--3--3---------------------3--3------------------------------------------| 
E|-------------------------------------------------------------------------| 

HEAVY PART: DISTORTION W/ TREMELO
e|-------------------------------------------------------------------------| 
B|-------------------------------------------------------------------------| 
G|---------------------------5~--------------------------------------------| 
D|--2~-----------------------5~--------------------------------------------| 
A|--2~-----------------------3~--------------------------------------------| 
E|--0~---------------------------------------------------------------------|

| / slide up 
| \ slide down 
| h hammer-on 
| p pull-off 
| ~ vibrato 
| + harmonic 
| x Mute note 
Related for Hands In The Sky tab