Song name
# A B C D E F G H I J K L M N O P Q R S T U V W X Y Z

Straylight Run - Well Never Leave Again tab

We'll Never Leave Again

the needles the space

INTRO/Verse
--------------------------------------------------------------------------|
--------------0-----------------0---1----------------1--------------1---0-|
--------------------------------------------------------------------------|
-----0----2------------0----2-----------------0---2----------0---2--------|
------------------------------------------3---------------3---------------|
-3-----------------3------------------------------------------------------|

And I've got you on my mind....

In love in bed we speak for weeks...

Pre-Chorus
--------------------0---0-----0-0----0----0--0------------------------|
-------------0------0---1-----1-1----0----0--0------------------------|
--------------------0---0-----0-0----0----0--0------------------------|
-----0---2----------0---0-----2-2----0----0--0------------------------|
--------------------2---2-----3-3----0----2--2------------------------|
-3------------------3---3-----------------3--3------------------------|

And your hands on the wall....

We'll be safe in our homes...

Chorus
---------2-----3-----------------------------------------------------|
--0------3-----3-----------------------------------------------------|
--0------2-----0-----------------------------------------------------|
--2------0-----2-----------------------------------------------------|
--2------------3-----------------------------------------------------|
--0------------------------------------------------------------------|

We'll Never Leave Again...


Outro
---------2-----3--------------------------------3--3------3---2---0--|
--0------3-----3-----------------0---------3-------------------------|
--0------2-----0-----------------------------------------------------|
--2------0-----2---------0----2--------------------------------------|
--2------------3-----------------------------------------------------|
--0-------------------3----------------------------------------------|

------------3------3---------3/5------7-------10---8--7---3----0------|
----7\5---------------------------------------------------------------|
----------------------------------------------------------------------|
----------------------------------------------------------------------|
----------------------------------------------------------------------|
----------------------------------------------------------------------|

Fades out mainly piano and the intro played under it. pretty easy great song

Tab by Matthew J.

Straylight Run


We'll never leave
Tap to rate this tab
# A B C D E F G H I J K L M N O P Q R S T U V W X Y Z