Song name
# A B C D E F G H I J K L M N O P Q R S T U V W X Y Z

Straylight Run - First Of The Century tab

Help us improve GuitareTab! Take a short survey!
Straylight Run
The First of the Century
Tabbed by Jess (forgetorexplode@yahoo.com)
Tuning:  step down

Intro (Repeat until picking part)
e|--2---2---2---2--|
B|--3---2---0---2--|
G|--2---2---2---2--|
D|--0---0---0---0--|
A|-----------------|
E|-----------------|

You know...It could be..
e|------2-----------------------------5----------------------------|
B|---------3-----------------------------5-------------------------|
G|----2---------repeat, then-----------------repeat this part too--|
D|---------------------------------7-------------------------------|
A|--0--------------------------------------------------------------|
E|------------------------------5----------------------------------|

Repeat Intro/Picking

At night...
e|--2-------|
B|--3---6---|
G|--2---6---|
D|--0---6---|
A|------4---|
E|------x---|

So what did we pay for...
e|--3---5---|
B|--3---5---|
G|--4---6---|
D|--5---7---|
A|--5---7---|
E|--3---5---|

And the vultures begin
e|---------------------------------------------------|
B|---------------------------------------------------|
G|--11/2/7/9/11/4/7/11/12/4/9/12/11/9/12/11-repeat--|
D|---------------------------------------------------|
A|---------------------------------------------------|
E|---------------------------------------------------|

Outro is the same as intro. End on D.

Thats it. Should be right for the most part. If you have the chords for the vultures 
part, Id like to see them. I think it goes D,Bm,G...but then Im not sure.

http://www.fancorps.com/straylightrun/signup/ref/dallasstars9899
Related for First Of The Century tab