Song name
# A B C D E F G H I J K L M N O P Q R S T U V W X Y Z

Straylight Run - Soon Well Be Living In The Future tab

----------------------------------------------------------------------------
	    Soon We'll Be Living In The Future - Straylight Run
----------------------------------------------------------------------------
Email: zzz629@aol.com

*Acoustic Version*

Tuning: EADGBe


Intro/Verse

So please...
e|---0--0--0-0-0---0--0--0-0-0---0--0--0-0-0---0--0--0-0-0-----------------|
B|---0--0--0-0-0---0--0--0-0-0---0--0--0-0-0---0--0--0-0-0-----------------|
G|---6--6--6-6-6---7--7--7-7-7---6--6--6-6-6---4--4--4-4-4-----------------|
D|---7--7--7-7-7---7--7--7-7-7---7--7--7-7-7---4--4--4-4-4-----[x2]--------|
A|---5--5--5-5-5---5--5--5-5-5---5--5--5-5-5---5--5--5-5-5-----------------|
E|---x--x--x-x-x---x--x--x-x-x---x--x--x-x-x---5--5--5-5-5-----------------|

e|---0--0--0-0-0---0--0--0-0-0---0--0--0-0-0---0---------------------------|
B|---0--0--0-0-0---0--0--0-0-0---0--0--0-0-0---0---------------------------|
G|---6--6--6-6-6---7--7--7-7-7---6--6--6-6-6---4---------------------------|
D|---7--7--7-7-7---7--7--7-7-7---7--7--7-7-7---4---------------------------|
A|---5--5--5-5-5---5--5--5-5-5---5--5--5-5-5---5---------------------------|
E|---x--x--x-x-x---x--x--x-x-x---x--x--x-x-x---5---------------------------|

Chorus

e|-------------------------------------------------------------------------|
B|---0----0---0--0---------------------------------------------------------|
G|---4----4---5--4----9----9---7--7----------------------------------------|
D|---5----5---5--5----7----7---7--7------------[x10]-----------------------|
A|---0----0---0--0----8----8---8--8----------------------------------------|
E|--------------------x----x---x--x----------------------------------------|

e|-------------------------------------------------------------------------|
B|-------------------------------------------------------------------------|
G|---11----11---9--9-----9----9---7--7-------------------------------------|
D|---9-----9----9--9-----9----9---9--9---------[x2]------------------------|
A|---10----10---10-10----8----8---8--8-------------------------------------|
E|---x-----x----x--x-----x----x---x--x-------------------------------------|

e|----------------------------------------------0---0---0---0---0----------|
B|----------------------------------------------0---0---0---0---0----------|
G|---11----11---9--9-----14----14---12--12------6---6---6---6---6----------|
D|---9-----9----9--9-----12----12---12--12------7---7---7---7---7----------|
A|---10----10---10-10----13----13---13--13------5---5---5---5---5----------|
E|---x-----x----x--x-----x-----x----x---x-------x---x---x---x---x----------|

(repeat whole thing from intro/verse)


============================================================================
Tap to rate this tab
# A B C D E F G H I J K L M N O P Q R S T U V W X Y Z