Guitaretab - guitar tabs
Song name
# A B C D E F G H I J K L M N O P Q R S T U V W X Y Z

Strebers - Blod Svett Och Tarar tab

-----------------------------------------------------------------------
Blod, Svett Och Tårar – Strebers
-----------------------------------------------------------------------

Tabbed by: Skipper Mikkel
Email: Mikkel_sejl@Hotmail.com

Tuning: Standard (low to high - EADGBE)


Intro:

|---------------------------------------------------|
|---------------------------------------------------|
|---2-4-4/5-4-2-0-----------------------------------|
|---2-------------3-2---0-0h2-2h3p2-0---0-0h2-0-----|
|-0-----------------------------------3---------3-2-|
|---------------------------------------------------|

|-----------------------------------------------------|
|-----------------------------------------------------|
|-----2-4-4/5-4-2-0-----------------------------------|
|---2---------------3-2---0-0h2-2p0-------------------|
|-0-0-------------------3----------h3-2-0-------------|
|-----------------------------------------4-5---0-3-4-|

 *Play this approx. 2 times then:

 Riff A: |A5|C5 D5|F5|C5 C5/A C5/G|  x 2


Verse 1:  
[ Tab from: http://www.guitaretab.com/s/strebers/89498.html ]
Am                       F
Jag har alltid trott att sossarna
Am             F
var ett arbetarparti
       Am                 Dm 
men nu har jag fattat att höger
                 C   G        Em
är samma sak som socialdemokrati
    Am 	         F
Det är ju jävligt lätt för dom
          Am                 F
som varje månad tjänar 60-70 tusen
    Am        Dm
att hyran för alla dom
    C       G      Em
som bor i betonghusen


Pre-chorus:

A5               B5 C5
Dom höjer vår mat, dom höjer vår moms
G5              E5
dom höjer våran hyra
A5            B5 C5
dom höjer allt utom vår lön
G5               E5
nu är goda råden dyra


Chorus:

Am   C         G Em
BLOD SVETT OCH TÅRAR
F              C         G
JAG SÄLJER MIN SJÄL TILL DÅRAR


Post-chorus: Riff A  x 2


Verse 2:  

Du som står där med käften full av skit
och säger att jag måste spara
men jag har ju aldrig några pengar kvar
hur kan du det förklara
Det är helt klart att det är fel
på hela den svenska politiken
dom tvingar oss att spara
men det funkar inte i praktiken


Chorus


“Solo”:

|Em|Em|G|C|  x 4


Pre-chorus


Chorus  


Chorus


Outro: Riff A