Song name
# A B C D E F G H I J K L M N O P Q R S T U V W X Y Z

Street Dogs - Hard Luck Kid tab

Street Dogs
Fading American Dream
Hard Luck Kid

Intro:
Guitar 1
---------------16-14-13------------------------|
---14-14-14-14----------------------16-14-13---|
------------------------13-13-13-13------------|
-----------------------------------------------|
-----------------------------------------------|
-----------------------------------------------|

-----------------------------------------------|
---------------14-13-11-------------16-14-13---|
---11-11-11-11----------13-13-13-13------------|
-----------------------------------------------|
-----------------------------------------------|
-----------------------------------------------|

Guitar 2
---------------------------------------------------------------------|
---------------------------------------------------------------------|
---6-6-6-6-6-6-6-6---------------------------------------------------|
---6-6-6-6-6-6-6-6-6-6-6-6-6-6-6-6-4-4-4-4-4-4-4-4-6-6-6-6-6-6-6-6---|
---4-4-4-4-4-4-4-4-6-6-6-6-6-6-6-6-4-4-4-4-4-4-4-4-6-6-6-6-6-6-6-6---|
-------------------4-4-4-4-4-4-4-4-2-2-2-2-2-2-2-2-4-4-4-4-4-4-4-4---|

Verse:
Both Guitars
-------------------------------------|
-------------------------------------|
---6-6-6-6-6-6-6-6-------------------|
---6-6-6-6-6-6-6-6-8-8-8-8-6-6-6-6---|
---4-4-4-4-4-4-4-4-8-8-8-8-6-6-6-6---| x4
-------------------6-6-6-6-4-4-4-4---|

Pre-Chorus:
Guitar 1
-------------------------------------|
-------------------------------------|
---3-3-3-3-5-5-5-5-6-6-6-6-6-6-6-6---|
---x-x-x-x-x-x-x-x-x-x-x-x-x-x-x-x---|
---1-1-1-1-3-3-3-3-4-4-4-4-4-4-4-4---| x2
-------------------------------------|

Guitar 2
-------------------------------------|
-------------------------------------|
-------------------------------------|
---8-8-8-8-6-6-6-6-4-4-4-4-4-4-4-4---|
---8-8-8-8-6-6-6-6-4-4-4-4-4-4-4-4---| x2
---6-6-6-6-4-4-4-4-2-2-2-2-2-2-2-2---|

Chorus:
Both Guitars
--------------------------------------------------------------------------|
--------------------------------------------------------------------------|
---6-6-6-----------6-6-6-----------6-6-6----------------------------------|
---6-6-6---4-4-4-4-6-6-6---4-4-4-4-6-6-6---4-4-4-4-6-6-6-6-6-6-6-6--------|
---4-4-4---4-4-4-4-4-4-4---4-4-4-4-4-4-4---4-4-4-4-6-6-6-6-6-6-6-6--------| x2
---------0-2-2-2-2-------0-2-2-2-2-------0-2-2-2-2-4-4-4-4-4-4-4-4--------|
Tap to rate this tab
# A B C D E F G H I J K L M N O P Q R S T U V W X Y Z