Song name
# A B C D E F G H I J K L M N O P Q R S T U V W X Y Z

Street Dogs - In Defense Of Dorchester tab

Street Dogs
Back to the World
In Defense of Dorchester

Intro:
Guitar 1
-------------------------------------|
-------------------------------------|
-----------6-6-6-6---------8-8-8-8---|
---8-8-8-8-6-6-6-6-6-6-6-6-8-8-8-8---|
---8-8-8-8-4-4-4-4-6-6-6-6-6-6-6-6---| x2
---6-6-6-6---------4-4-4-4-----------|

Guitar 2
---6-6-6-6-6-6-6-6-6-6-6-6-6-6-6-6---|
-------------------------------------|
-------------------------------------|
-------------------------------------|
-------------------------------------| x2
-------------------------------------|

Intro 2:
Guitar 1
-------------------------------------|
-------------------------------------|
-----------6-6-------------8-8-8-8---|
---8-8-----6-6-----6-6-----8-8-8-8---|
---8-8-----4-4-----6-6-----6-6-6-6---|
---6-6-------------4-4---------------|


-------------------------------------|
-------------------------------------|
-----------6-6-------------8---------|
---8-8-----6-6-----6-6-----8-(Ring)--|
---8-8-----4-4-----6-6-----6---------|
---6-6-------------4-4---------------|


Verse:
-------------------------------------|
-------------------------------------|
-----------6-6-6-6---------8-8-8-8---|
---8-8-8-8-6-6-6-6-6-6-6-6-8-8-8-8---|
---8-8-8-8-4-4-4-4-6-6-6-6-6-6-6-6---| x2
---6-6-6-6---------4-4-4-4-----------|
  pm.............................pm


-------------------------------------|
-------------------------------------|
-----------6-6-6-6---------8-8-8-8---|
---8-8-8-8-6-6-6-6-6-6-6-6-8-8-8-8---|
---8-8-8-8-4-4-4-4-6-6-6-6-6-6-6-6---| x2
---6-6-6-6---------4-4-4-4-----------|

Chorus:
---------------------------------------------------------------------|
---------------------------------------------------------------------|
-------------------6-6-6-6-6-6-6-6-----------------8-8-8-8-8-8-8-8---|
---8-8-8-8-8-8-8-8-6-6-6-6-6-6-6-6-6-6-6-6-6-6-6-6-8-8-8-8-8-8-8-8---|
---8-8-8-8-8-8-8-8-4-4-4-4-4-4-4-4-6-6-6-6-6-6-6-6-6-6-6-6-6-6-6-6---| x2
---6-6-6-6-6-6-6-6-----------------4-4-4-4-4-4-4-4-------------------|
Tap to rate this tab
# A B C D E F G H I J K L M N O P Q R S T U V W X Y Z