Song name
# A B C D E F G H I J K L M N O P Q R S T U V W X Y Z

Street Dogs - Drink Tonight tab

Street Dogs
Back to The World
Drink Tonight

Verse:
-------------------------------------|
-------------------------------------|
-------------------6-----------------|
---6-8-8-8-6-8-8-8-6-8-8-8-6-3-3-3---|
---6-8-8-8-6-8-8-8-4-8-8-8-6-3-3-3---| x4
---4-6-6-6-4-6-6-6---6-6-6-4-1-1-1---|


Chorus:
-------------------------------------|
-------------------------------------|
-------------------------------------|
---3-3-3-3-4-4-4-4-6-6-6-6-8-8-8-8---|
---3-3-3-3-4-4-4-4-6-6-6-6-8-8-8-8---| x2
---1-1-1-1-2-2-2-2-4-4-4-4-6-6-6-6---|
   pm............................pm
Tap to rate this tab
# A B C D E F G H I J K L M N O P Q R S T U V W X Y Z