Song name
# A B C D E F G H I J K L M N O P Q R S T U V W X Y Z

Street Dogs - Pull The Pin tab

Street Dogs
Back to the World
Pull the Pin


Intro:
-------------------------------------|
-------------------------------------|
-----------5-5-5-5---------6-5-6-5---|
---6-6-6-6-5-5-5-5-3-3-3-3-6-5-6-5---|
---6-6-6-6-3-3-3-3-3-3-3-3-4-3-4-3---| x2
---4-4-4-4---------1-1-1-1-----------|


Verse:
-------------------------------------|
-------------------------------------|
-----------5-5-5-5---------6-5-6-5---|
---6-6-6-6-5-5-5-5-3-3-3-3-6-5-6-5---|
---6-6-6-6-3-3-3-3-3-3-3-3-4-3-4-3---| x4
---4-4-4-4---------1-1-1-1-----------|
   pm............................pm


Pre-Chorus:
-----------------|
-----------------|
---3---6-6-6-6---|
---3-3-6-6-6-6---|
---1-3-4-4-4-4---| x4
-----1-----------|


Chorus:
-------------------------------------|
-------------------------------------|
-------------------------------------|
---6-6-6-6-8-8-8-8-6-6-6-6-6-5-6-5---|
---6-6-6-6-6-6-6-6-4-4-4-4-4-3-4-3---| x2
---4-4-4-4---------------------------|
Tap to rate this tab
 
# A B C D E F G H I J K L M N O P Q R S T U V W X Y Z