Street Pharmacy - This Life tab

I'll keep working on the rest of the song but i got the intro down pretty quickly 
and figured id throw it on here cuz there arent enough street pharmacy tabs on here.

 e|---------------------0-0-0-0-0-|
 b|---1-1-1----1-1-1----1-1-1-1-1-|
 g|---0-0-0----0-0-0----2-2-2-2-2-|
 d|---2-2-2----0-0-0----2-2-2-2-2-|
 a|---3-3-3----2-2-2----0-0-0-0-0-|
 e|-------------------------------| X2

 e|-------------------------------------------------------0-|
 b|-------------------------------1-----------------------1-|
 g|-----------0-------0-------2-----2---------0-------0---2-|
 d|---------2---2---0---0---2---2-----------2---2---0---0-2-|
 a|---0-2-3-------2-------0-----------0-2-3-------2-------0-|
 e|---------------------------------------------------------|
Tap to rate this tab
 
# A B C D E F G H I J K L M N O P Q R S T U V W X Y Z