Song name
# A B C D E F G H I J K L M N O P Q R S T U V W X Y Z

Street Pharmacy - Degenerate tab

Figure out the strumming

intro                 x= muted

F C Am G         On the fourth time playing the intro end it with A like this

E-------------     E----------|
B---1--1--1--3     B---1--1-1-|
G--2-----2--0-     G--2-----2-|
D-3--2--2-----     D-3---2--2-|
A---3---------     A----3-----|
E----------3--x4   E----------|

verse

F C Am G x8    Strum 2 times each

Chorus

E-1-1xxxxxxxxxxxx---------3-3--3-3-------|      Mute only strings E A D
B-1-1xxxxxxxxxxxx-5-5-5-5-3-3--3-3-------|
G-2-2xxxxxxxxxxxx-5-5-5-5-4-4--4-4-------|
D-3-3xxxxxxxxxxxx-5-5-5-5-5-5--5-5-------|
A-3-3xxxxxxxxxxxx-3-3-3-3-5-5--5-5-------|
E-1-1xxxxxxxxxxxx---------3-3--3-3x4-----|

The song is stays the same but theres only one part but only the strumming is changed a little.
Tap to rate this tab
 
# A B C D E F G H I J K L M N O P Q R S T U V W X Y Z