Street Pharmacy - Sober State Of Fame tab

This is my first tab so theres gonna be some mistakes and figure out the strumming yourself.

p= pull off  b= bend
s= slide
h=hammer on

Intro               The Intro ends without the last chord (5777)

E-5--3--5----|
B-5--3--5--7-|
G-6--4--6--7-|
D-7--5--7--7-|
A-7--5--7--5-|
E-5--3--5----|x4

verse                    The fourth one ends differently like this
strum 4 times each

E-5-----2--10-           E-5-----2-----10-|  Strum the last three chords two
B-5--9--2--10-           B-5--9--2--9--10-|  times each
G-6--9--2--11-           G-6--9--2--9--11-|
D-7--9--4--12-           D-7--9--4--9--12-|
A-7--7--4--12-           A-7--7--4--7--12-|
E-5-----2--10-x4         E-5-----2-----10-|

Intro is played

solo

E------------------------------------------------------------------------|
B------------------------------------------------------------------------|
G--------------------------------------------7h9p77h9p7-976--------------|
D-----77-7-7-7-7-7---------8s9-----7h9p77h9p7--------------97679--11-9-7-|
A------------------7-7-9h11----------------------------------------------|
E-5-5--------------------------------------------------------------------|

E---------------------------------------------------14-14-14-14p1214p1214p12-|
B------------------------7-9-10-9-10-12-12-10-12-14--------------------------|
G-79-11-6h7h9--------7-9-----------------------------------------------------|
D------------6h7h9s11--------------------------------------------------------|
A----------------------------------------------------------------------------|
E----------------------------------------------------------------------------|

E-14p1214p12------------14-14-14p12--------------|
B-----------12-14-12-14b------------12-14-12-14--|b
G------------------------------------------------|
D------------------------------------------------|
A------------------------------------------------|
E------------------------------------------------|

Its not to accurate but it was the best i could do for the solo

verse is played. Then the intro

E-3---     then just strum g chord down 14 or 15 times and carry into the
B-3--3     which is the end of the song and is played twice.
G-0--3
D-0--3
A-2---
E-3---x3

hope there wasnt to many mistakes for ya.
Tap to rate this tab
 
# A B C D E F G H I J K L M N O P Q R S T U V W X Y Z