Street Pharmacy - Rsvp tab

Palm Muted
e|------------------------------------------------------------|
b|------------------------------------------------------------|
g|------------------------------------------------------------|
d|------------------------------3-3-3-3-3-3-----5-------6-----|
a|------6-6-6-6-6-6-----6-------------------3-3---3-4-4---4---|
E|---4--------------3-3---3-0-1-------------------------------|


e|------------------------------------------------|
b|------------------------------------------------|
g|------------------------------------------------|
d|------------------------------3-3-3-3-3-3-5-6---|
a|------6-6-6-6-6-6-----6-------------------3-4---|
E|---4--------------3-3---3-0-1-------------------|
Tap to rate this tab
 
# A B C D E F G H I J K L M N O P Q R S T U V W X Y Z