Street Pharmacy - Recipe For Delinquency tab

e|-----2-----2-----2---2-----2-----2---2-----2-----2---2-----2-----2-|
b|-------3-----3---------3-----3---------3-----3---------3-----3-----|
g|---4-----4-----4---3-----3-----3---2-----2-----2---1-----1-----1---|
d|-------------------------------------------------------------------|
a|-------------------------------------------------------------------|
E|-------------------------------------------------------------------|

e|-----2-----2-----2---2-------2-----2---2-----2-----2---2-----2-----2-|
b|-------3-----3---------3-------3---------3-----3---------3-----3-----|
g|---0-----0-----0-----------------------------------------------------|
d|-------------------2-----0h2-----2-----------------------------------|
a|-------------------------------------2-----2-----0---2-----2-----2---|
E|---------------------------------------------------------------------|

Repeat
Tap to rate this tab
 
# A B C D E F G H I J K L M N O P Q R S T U V W X Y Z