Song name
# A B C D E F G H I J K L M N O P Q R S T U V W X Y Z

Street Sweeper Social Club - The Squeeze tab

CHORUS RIFF:

e|----------------------------|--------------------------|
b|----------------------------|--------------------------|
G|----------------------------|--------------------------|
D|-5--------------------------|--------------------------|
A|---7-5--7--5-7--5-7-5-------|-5------------------------|
E|----------------------7-5---|---7-5--7--5-7--5-7-5-0---|

e|-----------|
b|-----------|
G|-----------|
D|-7----8----|
A|-7----8----|
E|-5----6----|

VERSE RIFF:

e|-------------------------|----------------------|
b|-------------------------|----------------------|
G|-------------------------|----------------------|
D|-------------------------|----------------------|
A|-7--5--7--5--------------|-7--5-----7--5--------|
E|-------------3--5--3--0--|-------0--------3--5--|

e|-------------------------|--------------------|
b|-------------------------|--------------------|
G|-------------------------|--------------------|
D|-------------------------|----------7----8----|
A|-7--5--7--5--------------|-7--5-----7----8----|
E|-------------3--5--3--0--|-------0--5----6----|

OUTRO:

e|----------------------------|----------------------------|
b|----------------------------|----------------------------|
G|----------------------------|----------------------------|
D|-5--------------------------|-5--------------------------|
A|---7-5--7--5-7--5-7-5-------|---7-5--7--5-7--5-7-5-------|
E|----------------------7-5---|----------------------7-5---|

e|----------------------------|----------------------------|
b|----------------------------|----------------------------|
G|----------------------------|----------------------------|
D|-5--------------------------|-5--------------------------|
A|---7-5--7--5-7--5-7-5-------|---7-5--7--5-7--5-----------|
E|----------------------7-5---|------------------7-5-0-----|
Tap to rate this tab
# A B C D E F G H I J K L M N O P Q R S T U V W X Y Z