Song name
# A B C D E F G H I J K L M N O P Q R S T U V W X Y Z

Street Sweeper Social Club - 100 Little Curses tab

100 Little Curses                                 
STREET SWEEPER SOCIAL CLUB
TAB BY gun88
                                                           
INTRO With Natural Harmonics

                         NH 
  
E||------------------------|
B||------------------------|
G||------------------------|
D||------------------------|
A||------------------------|
E||-------------------<>12-|


       NH   NH   NH   NH  NH  NH   NH  NH  NH   NH  NH  NH    
      
|-----------------------------------------------------------||
|-----------------------------------------------------------||
|*---------------------------------------------------------*||
|*-------<>12-----------<>7----------<>5----------<>7------*||   X4
|---<>12------<>12--<>7-----<>7--<>5-----<>5--<>7-----<>7---||
|-----------------------------------------------------------||





CHORUS


--------------------|-------------------|-------------------|-------------------|
--------------------|-------------------|-------------------|-------------------|
--------------------|-------------------|-------------------|-------------------|
--/2----------------|--5----------------|--7----------------|--2----------------|
--/2----------------|--5----------------|--7----------------|--2----------------|
--/0----------------|--3----------------|--5----------------|--0----------------|




VERSE


|------------------------------------|------------------------------------|
|------------------------------------|------------------------------------|
|------------------------------------|------------------------------------|
|-----------------5h-7---------------|----------------5h-7----------------|
|---5g7--7--5h-7--------5h-7---------|--5g7--7--5h-7--------5h-7------5---|
|----------------------------5h-7-0--|---------------------------5h-7-----|

        



SOLO


   Wha On, Harmonizer 1 OCT UP, Killswitch                            
  
---------------------------------------------------------------------|
---------------------------------------------------------------------|
---------------------------------------------------------------------|
---------------------------------------------------------------------|
--------------------------------------------------10--10g12-10-------|
--12--------------------------------------10--12----------------12---|


 
------------------------------|---------------------------------------|
------------------------------|---------------------------------------|
------------------------------|---------------------------------------|
------------------------------|---------------------------------11-11-|
----------------12b----10b----|----------------10--10g12-10-----------|
--12----10--12----------------|--12----10--12----------------12-------|

     
---------------------------------|
---------------------------------|
---------------------------------|
--12--11--12--11--12--11--12\----|
---------------------------------|
---------------------------------|


   Stop Killswitch - Stop Wha                      
                     
--12--------------------------0-7-10-10--9-0-7-0-3-0----------------------------
-------------------------------------------------------------------------------1
--------------------------------------------------------------------------------
--------------------------------------------------------------------------------
--------------------------------------------------------------------------------
--------------------------------------------------------------------------------


   
--12-0-7-10-10--9-0-7-0-3-0-15\----|--12-0-7-10-10--9-0-7-0-3-0--------|
-----------------------------------|----------------------------10\----|
-----------------------------------|-----------------------------------|
-----------------------------------|-----------------------------------|
-----------------------------------|-----------------------------------|
-----------------------------------|-----------------------------------|


                                        TP TP  TP  TP  TP  TP  TP  TP TP  
 
--0-0-3-0-0-5-0-0-7-0-0-10-0-0-12\--|------------------------------------|
------------------------------------|--12---------12----------12---------|
------------------------------------|-----12----------12----------12-----|
------------------------------------|---------14----------14---------14--|
------------------------------------|------------------------------------|
------------------------------------|------------------------------------|


   TP TP  TP  TP  TP  TP  TP  TP TP     TP TP  TP  TP  TP  TP  TP  TP TP  
   
------------------------------------|------------------------------------|
--15---------15----------15---------|--10---------10----------10---------|
-----16----------16----------16-----|-----11----------11----------11-----|
---------17----------17---------17--|---------12----------12---------12--|
------------------------------------|------------------------------------|
------------------------------------|------------------------------------|


   
--19-17-15-------------------------------------------------------------|
-----------19-17-15-19-17-15-------------------------------------------|
-----------------------------19-17-16-19-17-16-------------------------|
-----------------------------------------------19-17-16-19-17-16-------|
-----------------------------------------------------------------19----|
-----------------------------------------------------------------------|

 



INTRO	X4
CHORUS	X2
VERSE	X8
CHORUS 	X2
VERSE	X8
CHORUS 	X3
SOLO
CHORUS	X3





-----------------------
tab by gun88

gun88@hotmail.it
_______________________


Tablature Legend
----------------
L - tied note
x - dead note
g - grace note
(n) - ghost note
> - accentuded note
NH - natural harmonic
AH - artificial harmonic
TH - tapped harmonic
SH - semi harmonic
PH - pitch harmonic
h - hammer on
p - pull off
b - bend
br - bendRelease
pb - preBend
pbr - preBendRelease
brb - bendReleaseBend
\n/ - tremolo bar dip
\n - tremolo bar dive
-/n - tremolo bar Release up
/n\ - tremolo bar inverted dip
/n - tremolo bar return
-\n - tremolo bar Release down
S - shift slide
s - legato slide
/ -  slide into from below or out of upwards
\ -  slide into from above or out of downwards
~ - vibrato
W - wide vibrato
tr - trill
TP - tremolo picking
T - tapping
S - slap
P - pop
< - fade in
^ - brush up
v - brush down
Tap to rate this tab
# A B C D E F G H I J K L M N O P Q R S T U V W X Y Z