Song name
# A B C D E F G H I J K L M N O P Q R S T U V W X Y Z

Street Sweeper Social Club - The Oath tab

THE OATH

Standard Tuning


INTRO (also played at the end of the 3rd verse):
  

Played with the volume down, let every note ring   

e|-------------------------|---------------5--------|
B|------9-----10-9---------|----7-------------5-----| 
G|-9-------9-------9-------|-7-----7--6----------6--|
D|-9------------------9----|-7--------7-------------| 
A|-7-----------------------|-5--------7-------------|
E|-------------------------|----------5-------------|
   
e|-------------------------|----3-----0-----0-------|
B|------7-----8-7----------|-------0--0--------0----|
G|-7-------7------7--------|-0--------1-------------|
D|-7-----------------7-----|-0--------2-------------|
A|-5-----------------------|-2--------2-------------|
E|-------------------------|-3----------------------|
 


VERSE:

e|------------------------|
B|------------------------| Remember that the first
G|------------------------| note of the riff is the
D|------------------------| E octave at the end of
A|----------------------7-| each bar
E|----------------------0-|

e|------------------------|------------------------|
B|------------------------|------------------------|
G|------------------------|------------------------|
D|-------------------5----|-------------------5----|
A|--5--7--5--7--5--7----7-|--5--7--5--7--5--7----7-|
E|----------------------0-|----------------------0-|
						
e|------------------------|---------------------------| 
B|------------------------|---------------------------|
G|------------------------|---------------------------|
D|-------------------5----|---------------------------| 
A|--5--7--5--7--5--7----7-|--5--7--5------5h7-----5-7-|
E|----------------------0-|-----------5h7-----5h7---0-|



CHORUS:
   
 
e|--------------------------|------------------------|
B|--------------------------|------------------------|
G|-9---9-9--9--x-x--x-x-x-x-|-7---7-7--6---6-6--6----|
D|-9---9-9--9--x-x--x-x-x-x-|-7---7-7--7---7-7--7----|
A|-7---7-7--7--x-x--x-x-x---|-5---5-5--7---7-7--7----|
E|--------------------------|----------5---5-5--5----|
  
e|--------------------------|-----3-3-------0-------|
B|--------------------------|-----0-0--0-------0----|
G|-7---7-7--7--x-x--x-x-x-x-|-0---0-0--1------------|
D|-7---7-7--7--x-x--x-x-x-x-|-0---0-0--2------------|
A|-5---5-5--5--x-x--x-x-x---|-2---2-2--2------------|
E|--------------------------|-3---3-3--0------------|

Tap to rate this tab
# A B C D E F G H I J K L M N O P Q R S T U V W X Y Z