Guitaretab - guitar tabs
Song name
# A B C D E F G H I J K L M N O P Q R S T U V W X Y Z

Street Sweeper Social Club - Promenade tab

Band:  Street Sweeper Social Club
Album: Street Sweeper Social Club
Song:  Promenade

     Intro/Verses: Keep repeating til chorus
E|---------------------------------------------------|
B|---------------------------------------------------|
G|---------------------------------------------------|
D|---------------------------------------------------|
A|-------------------------------------5-------------|
E|---0---0---0---0---0---0---0---0-5h7---------------|

     Verses (Gtr II):
E|--------------------------------------------|
B|---8-8-8-8-8-8-8-8-10-10-10-10-10-10-10-10--|
G|--------------------------------------------|
D|--------------------------------------------|
A|--------------------------------------------|
E|--------------------------------------------|
[ Tab from: http://www.guitaretab.com/s/street-sweeper-social-club/189176.html ]
E|----------------------------------------------------|
B|---12-12-12-12-12-12-12-12-15-15-15-15-15-15-15-15--|
G|----------------------------------------------------|
D|----------------------------------------------------|
A|----------------------------------------------------|
E|----------------------------------------------------|

     Chorus (2x): Kinda hard for me to write it out, but you'll get it
E|-------------------------------------------------------|
B|-------------------------------------------------------|
G|---9----9-9---5--5-5--4-7---12--12-12---7--7-7--4-7----|
D|---9----9-9---5--5-5--4-7---12--12-12---7--7-7--4-7----|
A|---7----7-7---3--3-3--2-5---10--10-10---5--5-5--2-5----|
E|-------------------------------------------------------|


Now I can't tab out the solo, but I know the main part is Tom bending on the 14th fret 
the G and picking the 15th fret.
Related for Promenade tab
Advertisement will be closed in 10 seconds