Song name
# A B C D E F G H I J K L M N O P Q R S T U V W X Y Z

Street Sweeper Social Club - Clap For The Killers tab

Remember Tom Uses his Drop B Les Paul for this song so the it is in Drop B
And if you dont know what an artifical harmonic is its when after picking a note you 
tap to the string with a finger, some people have diffferent ways of doing it but thats how 
do it, look for lessons on them or something
btw personally i think its sounds fine without them if you turn up the mids alot or us 
turbo distortion feature on sumtin like a DS-2 thats what i do

Key:
Hammer-on: h
pull-off: p
Artificial harmonic (pinch harmonic): <7>
palm mute: .....
slide: /
vibrato: v

Intro/Riff

E |---------------------------------------------------------|
b |---------------------------------------------------------|
G |---------------------------------------------------------|
D |---------------------------------------------------------|x8
A |------2h0-0h2-<5>--------0-------------------------------|
B |--0---------------<3>-<5>--------------------------------|


Chorus
(note:first two times play without pulloff)
E |---------------------------------------------------------|
b |---------------------------------------------------------|
G |---------------------------------------------------------|
D |---------------------------------------------------------|x6
A |-------2-------2-------2---5p0-----0---------------------|
B |-0-0-0---0-0-0---0-0-0----------3-5----------------------|
    . . .   . . .   . . .          . .

Riff
E |---------------------------------------------------------|
b |---------------------------------------------------------|
G |---------------------------------------------------------|
D |---------------------------------------------------------|x4
A |------2h0-0h2-<5>--------0-------------------------------|
B |--0---------------<3>-<5>--------------------------------|


Chorus
(note:first two times play without pulloff)
E |---------------------------------------------------------|
b |---------------------------------------------------------|
G |---------------------------------------------------------|
D |---------------------------------------------------------|x6
A |-------2-------2-------2---5p0-----0---------------------|
B |-0-0-0---0-0-0---0-0-0----------3-5----------------------|
    . . .   . . .   . . .          . .

Riff
E |---------------------------------------------------------|
b |---------------------------------------------------------|
G |---------------------------------------------------------|
D |---------------------------------------------------------|x8
A |------2h0-0h2-<5>--------0-------------------------------|
B |--0---------------<3>-<5>--------------------------------|

Chorus
(note:first two times play without pulloff)
E |---------------------------------------------------------|
b |---------------------------------------------------------|
G |---------------------------------------------------------|
D |---------------------------------------------------------|x10
A |-------2-------2-------2---5p0-----0---------------------|
B |-0-0-0---0-0-0---0-0-0----------3-5----------------------|
    . . .   . . .   . . .          . .
Solo/Outro (not positive if this is the exact solo this is just what i heard live, Tom 
improvs this so, he also switches to a very bluesy tone)

Solo Lead (Tom Morello)
E |---------------------------------------------------------|
b |-10-10/12v-----10-7-12b13r--7h10-10----------------------|
G |------------11----------------------7v/------------------|
D |---------------------------------------------------------|
A |---------------------------------------------------------|
B |---------------------------------------------------------|

E |------------------------------------------------------------------|
b |--------------------------------------7---------------------------|
G |------9-7-9b10r-7h9p7v-7h9----------9---9b10r-7h9p7---------------|
D |--7-9----------------------7h9-9v-7-----------------7v-7-7-7h9v/--|
A |------------------------------------------------------------------|
B |------------------------------------------------------------------|

Solo Rythm (Carl Restivo)
(note:first two times play without pulloff)
E |---------------------------------------------------------|
b |---------------------------------------------------------|
G |---------------------------------------------------------|
D |---------------------------------------------------------|x6
A |-------2-------2-------2---5p0-----0---------------------|
B |-0-0-0---0-0-0---0-0-0----------3-5----------------------|
    . . .   . . .   . . .          . .
Tap to rate this tab
 
# A B C D E F G H I J K L M N O P Q R S T U V W X Y Z