Song name
# A B C D E F G H I J K L M N O P Q R S T U V W X Y Z

Street Sweeper Social Club - Nobody Moves Til We Say Go tab

-----------------------------------------------------------------
Nobody Moves (Til We Say Go) - Street Sweeper Social Club
-----------------------------------------------------------------
Tabbed by: GI_1963
Email: azkid1963@hotmail.com

This is track 11 on their self titled album, but the live Version is wickedly better so 
tabed it instead.
Tom uses his Les Paul in a standerd tuning with the low E at B so id recommend you get your
guitar ready for the thicker guage about .56 to .60 by asking a local music store to see 
they
can do, because if you dont know dont do it! Might want to add something to the verse 
a
flange or phaser for extra depth (Tom Morello uses his phase 90 for the verse live).
sorry for my english i live in the USA, lol.

to get the tuning on a tuner its 5 flats on the low E, Thats it

Tuning: E=B drop        Low to High: B A D G b e
                  Octaves on staff   2 3 4 4 4 5


Intro/Chorus x8
Verse A x4
Verse B x4
Intro/Chorus x4
Verse A x4
Verse B x4
Intro/Chorus x4
Solo Rhythm is Intro/Chorus 4x
Intro/Chorus x4
Breakdown x16

The Intro Palm Muted in the album


Intro/Chorus

e|----------------------------|----------------------||
b|----------------------------|----------------------||
G|----------------------------|----------------------||
D|----------------------------|----------------------||
A|----------------------------|----------------------||
B|-15-15-14-14-12-12--10-12\--|--0----0----0----0----||

Kick on the Phase 90 for the Verses

Verse A

e|-------------------------------|-----------X-X--X--X-X--X--X-X-----|
b|-------------------------------|-----------X-X--X--X-X--X--X-X-----|
G|-------------------------------|-----------X-X--X--X-X--X--X-X-----|
D|-------------------------------|-----------X-X--X--X-X--X--X-X-----|
A|-------------------------------|-----------X-X--X--X-X--X--X-X-----|
B|-0-12h0--0-10--0-3p0-0-5--0-3--|--0--0-----X-X--X--X-X--X--X-X-----|

Verse B

e|-------------------------------|-----------------------------------|
b|-------------------------------|-----------------------------------|
G|-------------------------------|-----------------------------------|
D|-------------------------------|-----------------------------------|
A|-------------------------------|---------2-2-2-2-------------------|
B|-0-12h0--0-10--0-3p0-0-5--0-3--|--0--0------------3-3-3-3--5-5-5-5-|


Solo is for a real guitar player to tab but, i suck lol. but the live solo is easy he just
unplugs his guitar cable, touches it to a ground like the metal on the guitar or his hand,
and messes around with his wah.


Breakdown
                          on last time bend the last note up 1 step
e|-------------------------------|
b|-------------------------------|
G|-------------------------------|
D|-------------------------------|
A|-------------------------------|
B|-0-12h0--0-10--0-3p0-0-5--0-3--|
Tap to rate this tab
# A B C D E F G H I J K L M N O P Q R S T U V W X Y Z