Song name
# A B C D E F G H I J K L M N O P Q R S T U V W X Y Z

Street Sweeper Social Club - Paper Planes tab

Paper Planes cover, played live in Kansas City, 5/27/09 on the NIN|JA tour

Key:
 / slide up
 \ slide down
 b bend
 x muted pick

Verses:
 Guitar 1:
    Dmaj                                         A5
 e|-5--5--5--5-|-5--5--5--5-|-5--5--5--5-|-5--5--------|
 B|-7--7--7--7-|-7--7--7--7-|-7--7--7--7-|-7--7--------|
 G|-7--7--7--7-|-7--7--7--7-|-7--7--7--7-|-7--7--------|
 D|-7--7--7--7-|-7--7--7--7-|-7--7--7--7-|-7--7--7-----|
 A|-5--5--5--5-|-5--5--5--5-|-5--5--5--5-|-5--5--7-----|
 D|------------|------------|------------|-------7-----|
 Guitar 2:
 e|-22-22-22-22-22-22-22-22-22-22-22-22-22-17-17-17-17-|  *trem pick
 B|----------------------------------------------------|

 Guitar 1:
    G5                                              A5
 e|------------|------------|------------|-------------|
 B|------------|------------|------------|-------------|
 G|------------|------------|------------|-------------|
 D|-5--5--5--5-|-5--5--5--5-|-5--5--5--5-|-5--5--5--7--|
 A|-5--5--5--5-|-5--5--5--5-|-5--5--5--5-|-5--5--5--7--|
 D|-5--5--5--5-|-5--5--5--5-|-5--5--5--5-|-5--5--5--7--|
 Guitar 2:
 e|-15-15-15-15-15b-15b-15b-15b-15b-15b-15b-15b-15b-17-| *trem pick 1st-|
 B|---------------------------------------------------------------------|  measure

Choruses:
 Guitar 1+2:
    Dmaj                                  A5
 e|-2-----2-2-2-2----------------X------------|
 B|-3-----3-3-3-3----------------X------------|
 G|-2-----2-2-2-2----------------X------------| repeat, but play G5
 D|-0-----0-0-0-0------/X\X/X\---X---xxxx-7---| instead of Dmaj
 A|-0-----0-0-0-0------/X\X/X\---X---xxxx-7---|
 D|-0-----0-0-0-0------/X\X/X\---X---xxxx-7---|
         “Bang, bang,  slide up  pick
         bang, bang”   and down  behind
                       the neck  the nut

Solo:
                                  ____________________________________
                                  |1st
e|--------------------------------|------------------------------------|
B|--------------------------------|------------------------------------|
G|7/9-9/11-11-11-11/12-11\9-11\9-9|7/9-9/11-11-11-11/12-12/14-14\12-11-|
D|--------------------------------|------------------------------------|
A|5/7-7/9--9--9--9/10--9\7--9\7--7|5/7-7/9--9--9--9/10--10/12-12\10-9--|
D|--------------------------------|------------------------------------|
 ______________________________________
 |2nd
e|------------------------------------|
B|------------------------------------|
G|7/9-9/11-11/12-12/14-14/19-19-19-19-|
D|------------------------------------|
A|5/7-7/9--9/10--10/12-12/17-17-17-17-|
D|------------------------------------|
Tap to rate this tab
 
# A B C D E F G H I J K L M N O P Q R S T U V W X Y Z