Song name
# A B C D E F G H I J K L M N O P Q R S T U V W X Y Z

Street Sweeper Social Club - Somewhere In The World Its Midnight tab

Song: 'Somewhere In The World It's Midnight'
Band: 'Street Sweeper Social Club'
Album:'Street Sweeper Social Club'
Tabbed By: Sam 'The Man' Judd


DROP D!

e---------------|
B---------------|
G---------------|
D-7\------------|
A-7\------------|
D-7\------------|

Main Riff
e----------------------------------------------------------|
B----------------------------------------------------------|
G----------------------------------------------------------|
D----5-3-0-3-5-3-0--0-7-10---5-3-0-3-5-3-0-----------------|
A----5-3-0-3-5-3-0--0-7-10---5-3-0-3-5-3-0----3h5-3h5-3h5--|
D----5-3-0-3-5-3-0--0-7-10---5-3-0-3-5-3-0-----------------| X6


Acoustic Riff   0.34
e-------------------------------------------------|
B-------------------------------------------------|
G-------------------------------------------------|
D-----3---3-------------0--3--0-------------------|
A--5----5---5--3--0--3----------------------------|
D--0----------------------------------------------|X12

While that's being played,
e-----------------------------------|
B--12*------------------------------|With Trem
G----12*----------------------------|
D-----------------------------------|
A-----------------------------------|
D-----------------------------------|X5

Main Riff      1.07
e---------------------------------------------------------|
B---------------------------------------------------------|
G---------------------------------------------------------|
D----5-3-0-3-5-3-0--0-7-10---5-3-0-3-5-3-0----------------|
A----5-3-0-3-5-3-0--0-7-10---5-3-0-3-5-3-0----3h5-3h5-3h5-|
D----5-3-0-3-5-3-0--0-7-10---5-3-0-3-5-3-0----------------|X4

                                        1.30
e----------------------------------------------------------|
B----------------------------------------------------------|
G----------------------------------------------------------|
D-0-0--m-m-m-m-----0-0--m-m-m-m-m-m------------------------|
A-0-0--m-m-m-m-----0-0--m-m-m-m-m-m------------------------|
D-0-0--m-m-m-m-----0-0--m-m-m-m-m-m------------------------|X4


Acoustic Riff      1.41
e-------------------------------------------------|
B-------------------------------------------------|
G-------------------------------------------------|
D-----3---3-------------0--3--0-------------------|
A--5----5---5--3--0--3----------------------------|
D--0----------------------------------------------|X12

While that's being played,
e-----------------------------------|
B--12*------------------------------|With Trem
G-----12*---------------------------|
D-----------------------------------|
A-----------------------------------|
D-----------------------------------|X5

Main riff      2.14
e---------------------------------------------------------|
B---------------------------------------------------------|
G---------------------------------------------------------|
D----5-3-0-3-5-3-0--0-7-10---5-3-0-3-5-3-0----------------|
A----5-3-0-3-5-3-0--0-7-10---5-3-0-3-5-3-0----3h5-3h5-3h5-|
D----5-3-0-3-5-3-0--0-7-10---5-3-0-3-5-3-0----------------|X4

Solo            2.36


Who knows what Tom does for the solo but it's certainly not me...
Just jam something out!

If I fucked up anywhere just email me: thekosak@yahoo.com
Tap to rate this tab
 
# A B C D E F G H I J K L M N O P Q R S T U V W X Y Z