Song name
# A B C D E F G H I J K L M N O P Q R S T U V W X Y Z

Street Sweeper Social Club - Megablast tab

Help us improve GuitareTab! Take a short survey!
Intro pt. 1:
Use Whammy Pedal set 2 Octaves up, use it on each chord.

e|-----------------------------------------------|
b|-----------------------------------------------|
g|-----------------------------------------------|
d|--4-----7-----6-----9--------------------------|
a|--2-----5-----4-----7--------------------------|
e|-----------------------------------------------|

e|-----------------------------------------------|
b|-----------------------------------------------|
g|-----------------------------------------------|
d|--4-----7-----6-----2--------------------------|
a|--2-----5-----4-----0--------------------------|
e|-----------------------------------------------|


Intro pt. 2:
Distortion

e|-----------------------------------------------|
b|-----------------------------------------------|
g|-----------------------------------------------|
d|--2--4----2--4----2--4----2--4----7------------|    (x3)
a|--0--2----0--2----0--2----0--2----5------------|
e|-----------------------------------------------|
                                                          (play this twice)
e|-----------------------------------------------|
b|-----------------------------------------------|
g|-----------------------------------------------|
d|--2--4----2--4---------------------------------|
a|--0--2----0--2---------------------------------|
e|------------------0-2-0-2--5-2-----------------|


Verse 1:
Phaser, (. = PM)  The whole verse is PM, including the barred chords.
Play this 4 times.

e|-----------------------------------------------------------------------|
b|-----------------------------------------------------------------------|
g|-----------------------------------------------------------------------|
d|-x-x-x-x---x-x-x-x-x-x-x-x---x-x-x-x-x-x-x-x---x-x-x-x---x---x---x---x-|
a|-x-x-x-x-2-x-x-x-x-x-x-x-x-2-x-x-x-x-x-x-x-x-2-x-x-x-x-2-x-5-x-2-x-5-x-|
e|-x-x-x-x-2-x-x-x-x-x-x-x-x-2-x-x-x-x-x-x-x-x-2-x-x-x-x-2-x-5-x-2-x-5-x-|
           .                 .                 .         .   .   .   .

Chorus 1:

e|-----------------------------------------------|
b|-----------------------------------------------|
g|-----------------------------------------------|
d|--2--4----2--4----2--4----2--4----7------------|    (x3)
a|--0--2----0--2----0--2----0--2----5------------|
e|-----------------------------------------------|

e|-----------------------------------------------|
b|-----------------------------------------------|
g|-----------------------------------------------|
d|--2--4----2--4---------------------------------|
a|--0--2----0--2---------------------------------|
e|------------------0-2-0-2--5-2-----------------|


Verse 2:
Phaser, (. = PM)  The whole verse is PM, including the barred chords.
Play this 4 times.

e|-----------------------------------------------------------------------|
b|-----------------------------------------------------------------------|
g|-----------------------------------------------------------------------|
d|-x-x-x-x---x-x-x-x-x-x-x-x---x-x-x-x-x-x-x-x---x-x-x-x---x---x---x---x-|
a|-x-x-x-x-2-x-x-x-x-x-x-x-x-2-x-x-x-x-x-x-x-x-2-x-x-x-x-2-x-5-x-2-x-5-x-|
e|-x-x-x-x-2-x-x-x-x-x-x-x-x-2-x-x-x-x-x-x-x-x-2-x-x-x-x-2-x-5-x-2-x-5-x-|
           .                 .                 .         .   .   .   .

Chorus 2:

e|-----------------------------------------------|
b|-----------------------------------------------|
g|-----------------------------------------------|
d|--2--4----2--4----2--4----2--4----7------------|    (x3)
a|--0--2----0--2----0--2----0--2----5------------|
e|-----------------------------------------------|

e|-----------------------------------------------|
b|-----------------------------------------------|
g|-----------------------------------------------|
d|--2--4----2--4---------------------------------|
a|--0--2----0--2---------------------------------|
e|------------------0-2-0-2--5-2-----------------|

Bridge:
Use Whammy Pedal set 2 Octaves up, use it on each chord.

e|-----------------------------------------------|
b|-----------------------------------------------|
g|-----------------------------------------------|
d|--4-----7-----6-----9--------------------------|
a|--2-----5-----4-----7--------------------------|
e|-----------------------------------------------|

e|-----------------------------------------------|
b|-----------------------------------------------|
g|-----------------------------------------------|
d|--4-----7-----6-----2--------------------------|
a|--2-----5-----4-----0--------------------------|
e|-----------------------------------------------|

Chorus 3:
Distortion

e|-----------------------------------------------|
b|-----------------------------------------------|
g|-----------------------------------------------|
d|--2--4----2--4----2--4----2--4----7------------|    (x3)
a|--0--2----0--2----0--2----0--2----5------------|
e|-----------------------------------------------|
                                                          (play this twice)
e|-----------------------------------------------|
b|-----------------------------------------------|
g|-----------------------------------------------|
d|--2--4----2--4---------------------------------|
a|--0--2----0--2---------------------------------|
e|------------------0-2-0-2--5-2-----------------|

Outro:
Whammy Pedal (Max the Volume, Q, and Range)

e|-----------------------------------------------|
b|-----------------------------------------------|
g|-----------------------------------------------|
d|--4--------------------------------------------|    (x10)
a|--2--------------------------------------------|
e|-----------------------------------------------|
Related for Megablast tab