Song name
# A B C D E F G H I J K L M N O P Q R S T U V W X Y Z

Street Sweeper Social Club - Promenade tab

-------------------------------------------------------------------------------
			     PROMENADE - Street Sweeper Social Club
-------------------------------------------------------------------------------



OK this is my first tab so be gentle. This is how i play it but feel free to point out any errors.


Tabbed by:leeman599
Email:lmccrystall834@googlemail.com

Tuning:EADGBe

e|-------------------------------------------------------------------------|
B|-------------------------------------------------------------------------|
G|----12--14b-14b-14b16r14-----12----12----12-----12--14b-14b-14b16r14-----|
D|--------------------------14----14----14----14---------------------------|
A|-------------------------------------------------------------------------|
E|-------------------------------------------------------------------------|

e|-------------------------------------------------------------------------|
B|-------------------------------------------------------------------------|
G|----12---12---14b16r12------------12-----------------12-h14p-h14p--12----|
D|-14---14-----------------h14p-h14----h14p-h14p--h14----------------------|
A|-------------------------------------------------------------------------|
E|-------------------------------------------------------------------------|

e|-----15------15-----15-------15------15----------------------------------|
B|----------------------------------------------------17b19----------------|
G|--12-----12------12------12------12--------------------------------------|
D|-------------------------------------------------------------------------|
A|-------------------------------------------------------------------------|
E|-------------------------------------------------------------------------|



| /  slide up
| \  slide down
| h  hammer-on
| p  pull-off
| ~  vibrato
| +  harmonic
| x  Mute note
| b  bend
| r  release
===============================================================================
Tap to rate this tab
# A B C D E F G H I J K L M N O P Q R S T U V W X Y Z