Song name
# A B C D E F G H I J K L M N O P Q R S T U V W X Y Z

Street Sweeper Social Club - Ghetto Blaster tab

-------------------------------------------------------------------------------
			     Ghetto Blaster - Street Sweeper social Club
-------------------------------------------------------------------------------
Tabbed by: Dazz203
Email: dazcurran@hotmail.co.uk

Tuning: drop D


fig 1.
                   x3
e|-------------------||------------------||
B|-6-----------------||-6----------------||
G|-5----------------o||-5----------------||
D|------------------o||------------------||
A|-5--3-4-5---3-5----||-5--------8-5-3---||
D|----------0-----0--||----3-4-5-------3-||

fig 2.

e|---------------------------------------------------------------------------|
B|---------------------------------------------------------------------------|
G|---------------------------------------------------------------------------|
D|-------------xx-----------------------3-3----------------------------------|
A|-5-5---5-5---xx-5-5-5-5---5-5---5-5-------x-3------------------------------|
D|-----0-----0-xx---------0-----0-----0--------------------------------------|

************************************

| /   slide up
| \   slide down
| h   hammer-on
| p   pull-off
| ~   vibrato
| +   harmonic
| x   Mute note
| b   Bend
| pb  Pre-bend
| br  Bend release
| pbr Pre-bend release
| brb Bend release bend

************************************
Tap to rate this tab
 
# A B C D E F G H I J K L M N O P Q R S T U V W X Y Z