Street Sweeper Social Club - Promenade tab

Artist: Street Sweeper Social Club
Song: Promenade (Re-Edited version, "Radio-Remix")
Album: Single Edit
tabbed by: necriononguitar
e-mail (No freakin SPAM!): tim.rathgen@gmx.de

REAL FANS SUPPORT BANDS BY PURCHASING THEIR CDS!!!

. = Palm-Muted
~ = hold note
^ = vibrate
p = pull off
h = hammer on
/ = slide up
\ = slide down
* = harmonic
b = bend


Tuning: Standard


I use the following Guitar, Amp and Effects:

- Gibson Explorer (not necessary, ofc)
  - Use Bass Pick-Up
- Vox Valvetronix (Amp-Setting: UK 80's or US Highgain)
  - Auto Wah
  - Delay
  - Chorus

Wanna see me covering it? Here you go:
http://www.youtube.com/watch?v=FNTQPQktaVE


Solo Starts at:  1:32
    E                           C             [b1/2r14]
E----------------------------------------------------------------|
B---15~-----15~-----15~-(15)-------------------------------------|
G---14b16~--14b16~--14b16r14----12^------12----12(b)^------------|
D-------------------------------------14----14--------14-12------|
A----------------------------------------------------------------|
E----------------------------------------------------------------|

                                  hit the note here: *    [] = bend before picked
    G                              D
E-----------------------------------------------------------------------------|
B---15~-----15~-----15~-(15)--------------------------------------------------|
G---14b16~--14b16~--14b16r14-------12^-------12-[14b]16--12^------------------|
D--------------------------------14--------14------------------14(p)12-14-----|
A-----------------------------------------------------------------------------|
E-----------------------------------------------------------------------------|

b (without a number following) = bend a little to create a good sound for the note

    E   [ pull-off between 14+12 if u want to ]
E------------------------------------------------------|
B------------------------------------------------------|
G---12b-------------------12b--------------------------|
D--------14-12-14-12-14--------14-12-14-12-14----------|
A------------------------------------------------------|
E------------------------------------------------------|

    C   [  pull-off between 14+12 if u want to  ]
E------------------------------------------------------|
B------------------------------------------------------|
G---12b-------------------12-12b-----------------------|
D--------14-12-14-12-14----------14-12-14-12-14--------|
A------------------------------------------------------|
E------------------------------------------------------|

    G                                      D                    [slow bend]
E---15------15---------------15-----15-------------15--------------------------|
B------------------15---------------------15--------------15-----15b20r15-15^--|
G-----12------12-----12--------12-----12----12-------12-----12-----------------|
D------------------------------------------------------------------------------|
A------------------------------------------------------------------------------|
E------------------------------------------------------------------------------|

If you spot any mistake, please contact me via comment, pm or email.

Also, please rate and and comment if you liked the tab!

Cheers...
Tap to rate this tab
 
# A B C D E F G H I J K L M N O P Q R S T U V W X Y Z