Song name
# A B C D E F G H I J K L M N O P Q R S T U V W X Y Z

Street Sweeper - Clap For The Killers tab

Help us improve GuitareTab! Take a short survey!
Name-Clap For the Killers  Band-Street Sweeper

Tabbed by:afterthewar Email:e1005515g@gmail.com


Hey guys, here’s a song from Tom Morello’s new band.
You can get an EP with this song along with another Street Sweeper track along with two 
each by Nine Inch Nails and Jane’s Addiction.
They released it free online so just look it up.
It’s called NINJA 2009 Tour Sampler.
Anyways, this song is pretty easy to play, although in the first riff there might be 
harmonics.
Other than that, you’re good.
Play the riffs distorted and the solo clean with lots of reverb, maybe some chorus too.
Make it sound jazzy.
Listen to the song for the timing and learn this song while you wait for the Street 
album to come out in a bit.

Send questions comments, corrections, concerns, criticism, and whatever else you have to 
to e10005515g@gmail.com.

Street Sweeper’s website is at www.streetsweepermusic.com.

Tuning:Drop C

Riff 1

e|---------------------------------------------|
B|---------------------------------------------|
D|-------------------3-------------------------|
A|---------5---3--5-----------3------5---------|
E|----0--------------------0--3------5---------|

Riff 2

e|--------------------------------------------------------|
B|--------------------------------------------------------|
G|--------------------------------------------------------|
D|---------------------------------------------------3----|
A|---------5----------5----------5-----5------------------|
E|--0--0---------0-0------0--0--------------5---3---------|

Solo over Riff 2

e|--------------------------------------------------------------------|
B|--11---11h13~-----------------------------------------------------7-|
G|-------------------13h16--13-16b~--13h16--13~----(13)sX------6h9----|
D|--------------------------------------------------------------------|
A|--------------------------------------------------------------------|
E|--------------------------------------------------------------------|


e|-----------------------------------------------------------------|
B|--------7---------8b-------7--8b---------------------------------|
G|--9-----------9---------9------------9~------6----9---9-9----8~--|
D|--------------------------------------------------9---9-9--------|
A|-----------------------------------------------------------------|
E|-----------------------------------------------------------------|

e|--------------------------------------------------|
B|--------------------------------------------------|
G|----------9--11b~r11----9-------------------------|
D|--9h11-------------------------11--11~---(11)sX---|
A|--------------------------------------------------|
E|--------------------------------------------------|

Riff 1 x 10
Riff 2 x 6
Riff 1 x 4
Riff 2 x 6
Riff 1 x 8
Riff 2 x 10
Solo x 1
Fade out on Riff 1 x 4

| / slide up | \ slide down | h hammer-on | p pull-off | ~ vibrato | + harmonic | x Mute 
b Bend r Release
Related for Clap For The Killers tab