Song name
# A B C D E F G H I J K L M N O P Q R S T U V W X Y Z

Street Sweeper - Fight Smash Win tab

Here's the intro and 1st riff of the song. I don't know if the intro uses a
phazer or wah pedal (either work good).

    Intro:  tremelo pick these chords
E-----------------------------------------------------------------|
B-----------------------------------------------------------------|
G-----------------------------------------------------------------|
D---14-------12-------17-------14---------------------------------|
A---14-------12-------17-------14---------------------------------|
D---14-------12-------17-------14---------------------------------|


    1st Riff:  either single note or whole chord (Repeat 4x)
E-----------------------------------------------------------------|
B-----------------------------------------------------------------|
G-----------------------------------------------------------------|
D-----------------------------------------------------------------|
A-----------------------------------------------------------------|
D---0-2-0-2---5-0-2-5---0-2-0-2-5---4-2-0-------------------------|
Tap to rate this tab
# A B C D E F G H I J K L M N O P Q R S T U V W X Y Z