Guitaretab - guitar tabs
Song name
# A B C D E F G H I J K L M N O P Q R S T U V W X Y Z

Street To Nowhere - Miss Rolling Eyes tab

Thank you, kazmel213, for this intro tab. If you don't know how to read the tablature, I
the chords there for you guys. The fingerpicking part is in the intro, and also where
says, "And it's over, I'm over, I'm over it..."after that, you explode into the "E" chord.

Where I put the "E#", I mean just slide up the "E" chord one fret. That seems to sound better.

I can't figure out the bridge that starts with "cauterize". If you can, please write to
the correction. Also, write me if there are any other mistakes. I figures out the song
the best of my ability because I can't find it anywhere else online. I would appreciate 
very much if you have any corrections.
Good luck, and enjoy!

MISS ROLLING EYES Ė STREET TO NOWHERE

Repeat this

--------------------------------------------------------------------|
------1-----1-----0-----0-----0-------1-----1-----0-----0-----0-----|
----2---2-----2-----1-----1-----1---2---2-----2-----1-----1-----1---|
--2-------2-----2-----2-----2-----2-------2-----2-----2-----2-------|
--------------------------------------------------------------------|
[ Tab from: http://www.guitaretab.com/s/street-to-nowhere/71800.html ]
Cm
A sideshow act on center stage
Gm
Fermented breath she'd hate to taste
G#m                                    Gm
A zipper slips she slaps my face
Cm
She burns and blisters on my mind
Gm
Blurs and turns out from my sight
G#m                         Gm       Cm7
Self control's so unrefined
--------------------------------------------------------------------|
------1-----1-----0-----0-----0-------1-----1-----0-----0-----0-----|
----2---2-----2-----1-----1-----1---2---2-----2-----1-----1-----1---|
--2-------2-----2-----2-----2-----2-------2-----2-----2-----2-------|
--------------------------------------------------------------------|
           Am         E
and its over
   Am            E
again
             Am
and Iím over
       E
Iím over
      Am  E
Iím over it
E   E#  E    B                  C#m
Forget me Miss Rolling Eyes
                                   B
You're colder than the air outside
E   E#    E    B                         C#m
Replace me with stab wound sighs
                                    B
The wounds I failed to cauterize
Cm
With Subtle hints we fled at five
Gm
chased the sunrise through the vine
G#m                                    Gm
left the septic stench of her city behind
Cm
I've drawn dashed lines down my wrist
Gm
I swell from hope but Iím still convinced
G#m                                          Gm
a girl that knows her own power cant be tricked
--------------------------------------------------------------------|
------1-----1-----0-----0-----0-------1-----1-----0-----0-----0-----|
----2---2-----2-----1-----1-----1---2---2-----2-----1-----1-----1---|
--2-------2-----2-----2-----2-----2-------2-----2-----2-----2-------|
--------------------------------------------------------------------|
and its over
   Am            E
again
             Am
and Iím over
       E
Iím over
      Am  E
Iím over it
E   E#  E    B                  C#m
Forget me Miss Rolling Eyes
                                   B
You're colder than the air outside
E   E#    E    B                         C#m
Replace me with stab wound sighs
                                    B
The wounds I failed to cauterize

I cauterize

I caught her eyes
           Am         E
and its over
   Am            E
again
             Am
and Iím over
       E
Iím over
      Am  E
Iím over it
E   E#  E    B                  C#m
Forget me Miss Rolling Eyes
                                   B
You're colder than the air outside
E   E#    E    B                         C#m
Replace me with stab wound sighs
                                    B
The wounds I failed to cauterize
Related for Miss Rolling Eyes tab