Song name
# A B C D E F G H I J K L M N O P Q R S T U V W X Y Z

Streetlight Manifesto - One Foot On The Gas One Foot On The Grave tab

This is intro and 1st verse

These are the chords you use

Am,C,F,Am,G

It goes something like this. but dont stick to the tab. arpegio as it sounds best to you

|-------------------|----------0----------|
|----------1--------|------1-----1--------|
|------2-----2---2--|--------0-----0------|
|----2---------2----|----2-----------2----|
|--0-----0----------|--3------------------|
|-------------------|---------------------|
                                               
|----------1--------|---------------------|
|-------------------|------1---------0----|
|------2-----2---2--|------2---------0----|
|----3---------3----|----2----------------|
|--------3----------|--0-----------2------|
|--1----------------|------------3--------|   x2




|-------------------|-------------------|-------------------|
|-------------------|----------0--------|----------1--------|
|----------2--------|------0-----0---0--|------2-----2---2--|
|------3-----3---3--|----0---0-----0----|----2---2-----2----|
|----3---3-----3----|-------------------|--0----------------|
|--1----------------|--3----------------|-------------------|
                                        
|----------0--------|-------------------|
|------1-----1------|-------------------|
|----0---0-----0----|----------2--------|
|----------------2--|------3-----3------|
|--3----------------|----3---3-----3----|
|-------------------|--1-------------1--|

|-------------------|------|
|----------0--------|--1---|
|------0-----0---0--|--2---|
|----0---0-----0----|--2---|
|-------------------|--0---|
|--3----------------|------|
Tap to rate this tab
# A B C D E F G H I J K L M N O P Q R S T U V W X Y Z