Guitaretab - guitar tabs
Song name
# A B C D E F G H I J K L M N O P Q R S T U V W X Y Z

Streetlight Manifesto - We Will Fall Together tab

Band: Streetlight Manifesto
Album: Somewhere in the Between
Song: We Will Fall Together

Alright, part of the song tabbed out.  Its not 100%, but it sounds about right.
You will have to figure out the STRUMMING PATTERN on your own, but I put the time in 
to sort of help.  Best of luck playing!

0:00                   0:16   :20          :23-:24
e| --x-x-x-x-x-x-x-x-x-x| -2-2-2-2-2-3-2-3-2-2|-2-2-2-2-2-3-2-3-2-|
B| --x-x-x-x-x-x-x-x-x-x| -3-3-2-2-2-3-2-3-2-3|-3-3-2-2-2-3-2-3-2-|
G| --4-4-x-x-x-x-x-x-4-x| -4-4-3-3-3-4-3-4-3-4|-4-4-3-3-3-4-3-4-3-|
D| --4-4-4-4-5-4-5-4-4-4| -4-4-4-4-4-5-4-5-4-4|-4-4-4-4-4-5-4-5-4-|
A| --2-2-4-4-5-4-5-4-2-4| -2-2-4-4-4-5-4-5-4-2|-2-2-4-4-4-5-4-5-4-|
E| --x-x-2-2-3-2-3-2-x-2| -x-x-2-2-2-3-2-3-2-x|-x-x-2-2-2-3-2-3-2-|

:30         :34     :37-:38       :40-:41       :44ish         :47
|-3-3-2-2-2| -3-3-2-2-2| -3-3-5-5-2-2| -3-3-5-5-2-| -3-3-5-5-2-2|
|-3-3-2-2-3| -3-3-2-2-3| -3-3-5-5-2-3| -3-3-5-5-2-| -3-3-5-5-2-3|
|-4-4-3-3-4| -4-4-3-3-4| -4-4-6-6-3-4| -4-4-6-6-3-| -4-4-6-6-3-4|
|-5-5-4-4-4| -5-5-4-4-4| -5-5-7-7-4-4| -5-5-7-7-4-| -5-5-7-7-4-4|
|-5-5-4-4-2| -5-5-4-4-2| -5-5-7-7-4-2| -5-5-7-7-4-| -5-5-7-7-4-2|
|-3-3-2-2-x| -3-3-2-2-x| -3-3-5-5-2-x| -3-3-5-5-2-| -3-3-5-5-2-x|

            :51           I once knew a guy...(nothing is played)

"Time was ticking by.."

"And we know now.."     At "can you hear them call", I don't have it figured              out
|-3-3-2-2-2|       Do the same progression at "will we ever make it through"

[ Tab from: ]
"From the sky!"                          "We'll all be victims"

rise the meek"  "and when we fall..""no one will catch us.."
x-x-x-x-x-x|   |-2-2-5-5-5-5-5-3-3|-2-2-5-5-5-5-5-3-3|
x-x-x-x-x-x|   |-3-3-5-5-5-5-5-3-3|-3-3-5-5-5-5-5-3-3|
x-x-x-4-4-4|   |-4-4-6-6-6-6-6-4-4|-4-4-6-6-6-6-6-4-4|
7-7-7-4-4-4|   |-4-4-7-7-7-7-7-5-5|-4-4-7-7-7-7-7-5-5|
7-7-7-2-2-2|   |-2-3-x-x-x-7-7-5-5|-2-3-x-x-x-7-7-5-5|
5-5-5-x-x-x|   |-x-x-x-x-x-5-5-3-3|-x-x-x-x-x-5-5-3-3|  repeat for "and when we roam.."

No one will
Understand,what we meant    From here you should be able to figure out the
-2-2-5-5-5-2-2-2-2-x-x-------------|      rest of the song.  The sax solo is only
-3-3-5-5-5-2-2-2-2-x-x|      -2-2--| over and over again.   And unfortunately
-4-4-6-6-6-3-3-3-3-4-4|      -3-2--| i couldn't figure out "Now with the lines"
-4-4-7-7-7-4-4-4-4-4-4|      -4-3--| part (go figure the best part of the song)
-2-2-7-7-7-4-4-4-4-2-2|      -4-4--|  But yeah, good luck and i hope this tab
-x-x-5-5-5-2-2-2-2-x-x|      -2-4--|  is as correct as I think it is.

Another thing if you wanna play it on an acoustic with a Capo:
Capo the 2nd
Intro: Am, E, F, E, F, E, Am
Verse: same as intro, just figure out the strumming
"and we know..": F, E, Am

Chorus: F, G, C, Am, F, G, E, F, G, C, Am, F, G, Am
"and when we fall..": Am, G, G, F
No one will understand: Am, G, E

Once again from there you should be fine
If you have questions, suggestions, or something AIM me at
Related for We Will Fall Together tab