Song name
# A B C D E F G H I J K L M N O P Q R S T U V W X Y Z

Streetlight Manifesto - Riding The Fourth Wave tab

-------------------------------------------------------------------------------
			     Riding the Fourth Wave - Streetlight Manifesto
-------------------------------------------------------------------------------
Tabbed by: Warm-And-Fuzzy
Email: warmnfuzzy@gmail.com

Tuning: Standard

Intro:
E,G,A,B (Same chords in the Verse)
e|-------0-------3-------5------7---| Repeat the 3rd and 4th time around.
B|-------0-------3-------5------7---|
G|-------1-------4-------6------8---|
D|-------2-------5-------7------9---|
A|----2--2-----5-5-----7-7----9-9---|
E|--0----0---3---3---5---5--7---7---|
Second Time around
e|-------0--------3---2-----------------|
B|-------0--------3---4-----------------|
G|-------1--------4---4-----------------|
D|-------2--------5---4-x4--------------|
A|----2--2------5-5---2-----2p0---0-----|
E|--0----0----3---3-------------3----2--|
End of Intro:
e|----------7--|
B|----------7--|
G|--------8----|
D|------9------|
A|----9--------|
E|--7----------|
Drum Fill:
e|---0---|
B|---0---|
G|---1---|
D|---2---|
A|---2---|
E|---0---|

Chorus:
(Ska-Strum to the rhythm, listen to the song for changes)
E,G,C,B
e|--0--3--3--2--0--3--2--|
B|--0--3--5--4--0--3--4--|
G|--1--4--5--4--1--4--4--|
D|--2--5--5--4--2--5--4--|
A|--2--5--3--2--2--5--2--|
E|--0--3--------0--3-----|
Post Chorus(?):
Sharp Downstrokes
e|--0-----3-----5-----7---|
B|--0-----3-----5-----7---|
G|--1-x4--4-x4--6-x4--8-x4|
D|--2-----5-----7-----9---|
A|--2-----5-----7-----9---|
E|--0-----3-----5-----7---|

Then the verse (Brass solo) is just the intro's chords played with a ska rhythm. And 
on the Post Chorus into the next verse for each Horn's solo.

Chorus Brass part on Guitar:
e|-----------------------------------------------|
B|-----------------------------------------------|
G|-----------------------------------------------|
D|--2-2-2-2-0---2-2-2-2-4-5-4-2--2-2-2-2-0-------|
A|------------2----------------------------2-0-2-|
E|-----------------------------------------------|

e|----------------------------------------------|
B|----------------------------------------------|
G|----------------------------------------------|
D|--2---2--0---0-------1-2-4-2--2-2-2-2-0-------|
A|----2------2---4-0-4--------------------2-0-2-|
E|----------------------------------------------|

Then end on E

| /  slide up
|   slide down
| h  hammer-on
| p  pull-off
| ~  vibrato
| +  harmonic
| x  Mute note
===============================================================================
Tap to rate this tab
# A B C D E F G H I J K L M N O P Q R S T U V W X Y Z