Song name
# A B C D E F G H I J K L M N O P Q R S T U V W X Y Z

Streetlight Manifesto - Day In Day Out tab

-------------------------------------------------------------------------------
		DAY IN DAY OUT - Streetlight Manifesto 
-------------------------------------------------------------------------------
Tabbed by:PUnK'n'PlAiD
Email:operation_ska86@yahoo.com


Verse
e|2222-2222-3333-77-55-3333-2222-5555-------------------------------------|x2
B|3333-2222-3333-77-55-3333-3333-5555-------------------------------------|
G|2222-3333-4444-88-66-4444-2222-6666-------------------------------------|
D|-----4444-5555-99-77-5555------7777-------------------------------------|
A|-----4444-5555-99-77-5555------7777-------------------------------------|
E|-----2222-3333-77-55-3333------5555-------------------------------------|

Pre Chorus(i dont need anyone part)
e|------------------------------------------------------------------------|x2
B|------------------------------------------------------------------------|
G|-----7777----------------7777-------------------------------------------|
D|5555-7777-9999-7777-5555-7777-99999999----------------------------------|
A|5555-5555-9999-7777-5555-5555-99999999----------------------------------|
E|3333------7777-5555-3333------77777777----------------------------------|

Chorus
e|2222-55-33------------55-33-5555----------------------------------------|
B|3333-55-33------------55-33-5555----------------------------------------|
G|2222-66-44--x4-after--66-44-6666----------------------------------------|
D|-----77-55-----last---77-55-7777----------------------------------------|
A|-----77-55-----time---77-55-7777----------------------------------------|
E|-----55-33-----play---55-33-5555----------------------------------------|

My first tab so tell me if there are any mistakes
Tap to rate this tab
# A B C D E F G H I J K L M N O P Q R S T U V W X Y Z