Song name
# A B C D E F G H I J K L M N O P Q R S T U V W X Y Z

Streetlight Manifesto - Forty Days tab

Help us improve GuitareTab! Take a short survey!
E||---------------------10-12-10------|--------------------10-12-10------|
B||--/13--13--13----12------------12--|-----/13--13----12------------12--|
G||-----------------------------------|----------------------------------|
D||-----------------------------------|----------------------------------|
A||-----------------------------------|----------------------------------|
E||-----------------------------------|----------------------------------|



--------------------10-12-10------|--------------------------------|
--13--13--13----12------------12--|--10-12-10--13--12--10----------|
----------------------------------|--------------------------12----|
----------------------------------|--------------------------------|
----------------------------------|--------------------------------|
----------------------------------|--------------------------------|



---------------------10-12-10------|----------------------10-12-10------|
--/13--13--13----12------------12--|-----/13-----/13--12------------12--|
-----------------------------------|------------------------------------|
-----------------------------------|------------------------------------|
-----------------------------------|------------------------------------|
-----------------------------------|------------------------------------|



--------------------10-12-10------|--15----13----12-13-12----------|
--13--13--13----12------------12--|------------------------15--13--|
----------------------------------|--------------------------------|
----------------------------------|--------------------------------|
----------------------------------|--------------------------------|
----------------------------------|--------------------------------|



------------------------|-----------------------|
----------------13--12--|-------------------12--|
--14--------------------|--14-------------------|
------------------------|-----------------------|
------------------------|-----------------------|
------------------------|-----------------------|



----------------------------------|------------------------|
--13-x-x-13-x-x-13--15---13---12--|------------------------|
----------------------------------|--14----------\----x----|
----------------------------------|------------------------|
----------------------------------|------------------------|
----------------------------------|------------------------|



---------------------------|---------------------------|
---------------------------|---------------------------|
-------5-------------4-----|-------5-------------4--5--|
--7---------7-----5-----5--|--7---------7-----5--------|
---------------------------|---------------------------|
---------------------------|---------------------------|


---------------------------|-------------------||
---------------------------|-------------------||
-------5-------------4-----|-------------------||
--7---------7-----5-----5--|--7----------------||
---------------------------|-------------------||
---------------------------|-------------------||
Related for Forty Days tab