Song name
# A B C D E F G H I J K L M N O P Q R S T U V W X Y Z

Streetlight Manifesto - Somewhere In The Between tab

Help us improve GuitareTab! Take a short survey!
-----------------------------------------------------------------------------
       		Somewhere In The Between - Streetlight Manifesto
-----------------------------------------------------------------------------
Tabbed by: dumrock525
Email: dumrock525@yahoo.com

Tuning: Standard
Intro:
e|--------------------------------------------------------------------------|
B|--------------------------------------------------------------------------|
G|-5--12--10--9--7-5-4-5----------------------------------------------------|
D|-x--x---x---x--x-x-x-x----------------------------------------------------|
A|-3--10--8---7--5-3-2-3----------------------------------------------------|
E|--------------------------------------------------------------------------|

Horns:
e|--------------------------------------------------------------------------|
B|--------------------------------------------------------------------------|
G|--------------------------------------------------------------------------|
D|--------------------------------------------------------------------------|
A|-3---3-2--2-3--3-5-3-2-3--/8-7-3-5-7-5-3-2/3---3/5--5/8-7-3--5/8-7-5-3----|
E|--------------------------------------------------------------------------|

e|--------------------------------------------------------------------------|
B|--------------------------------------------------------------------------|
G|--------------------------------------------------------------------------|
D|--------------------------------------------------------------------------|
A|-3/7-5--2/3---------------------------------------------------------------|
E|--------------------------------------------------------------------------|


Chords: 

    C  G  Am    Dm C  G     C  G  Am F    C  G  C
e|--0--3--1-----1--0--3-----0--3--1--1----0--3--0---------------------------|
B|--1--0--2-----3--1--0-----1--0--2--1----1--0--1---------------------------|
G|--0--0--2-----2--0--0-----0--0--2--2----0--0--0---------------------------|
D|--2--0--0-----0--2--0-----2--0--0--3----2--0--2---------------------------|
A|--3--2--x-----x--3--2-----3--2--x--3----3--2--3---------------------------|
E|--x--3--x-----x--x--3-----x--3--x--1----x--3--x---------------------------|

(This is repeated for most of the song)



| /  slide up
| \  slide down
| h  hammer-on
| p  pull-off
| ~  vibrato
| +  harmonic
| x  Mute note
=============================================================================
Related for Somewhere In The Between tab